  0
SECTION
  2
HEADER
  9
$ACADVER
  1
AC1015
  9
$ACADMAINTVER
 70
     6
  9
$DWGCODEPAGE
  3
ANSI_1251
  9
$INSBASE
 10
0.0
 20
0.0
 30
0.0
  9
$EXTMIN
 10
-399.9921874237
 20
-399.9921874237
 30
0.0
  9
$EXTMAX
 10
399.9921874237
 20
399.9921874237
 30
0.0
  9
$LIMMIN
 10
0.0
 20
0.0
  9
$LIMMAX
 10
420.0
 20
297.0
  9
$ORTHOMODE
 70
     0
  9
$REGENMODE
 70
     1
  9
$FILLMODE
 70
     1
  9
$QTEXTMODE
 70
     0
  9
$MIRRTEXT
 70
     1
  9
$LTSCALE
 40
1.0
  9
$ATTMODE
 70
     1
  9
$TEXTSIZE
 40
4.0
  9
$TRACEWID
 40
1.0
  9
$TEXTSTYLE
  7
Standard
  9
$CLAYER
  8
0
  9
$CELTYPE
  6
ByLayer
  9
$CECOLOR
 62
   256
  9
$CELTSCALE
 40
1.0
  9
$DISPSILH
 70
     0
  9
$DIMSCALE
 40
1.0
  9
$DIMASZ
 40
6.0
  9
$DIMEXO
 40
1.0
  9
$DIMDLI
 40
3.75
  9
$DIMRND
 40
0.0
  9
$DIMDLE
 40
0.0
  9
$DIMEXE
 40
1.0
  9
$DIMTP
 40
0.0
  9
$DIMTM
 40
0.0
  9
$DIMTXT
 40
4.0
  9
$DIMCEN
 40
2.5
  9
$DIMTSZ
 40
0.0
  9
$DIMTOL
 70
     0
  9
$DIMLIM
 70
     0
  9
$DIMTIH
 70
     1
  9
$DIMTOH
 70
     1
  9
$DIMSE1
 70
     0
  9
$DIMSE2
 70
     0
  9
$DIMTAD
 70
     1
  9
$DIMZIN
 70
     0
  9
$DIMBLK
  1

  9
$DIMASO
 70
     1
  9
$DIMSHO
 70
     1
  9
$DIMPOST
  1

  9
$DIMAPOST
  1

  9
$DIMALT
 70
     0
  9
$DIMALTD
 70
     3
  9
$DIMALTF
 40
0.0393700787
  9
$DIMLFAC
 40
1.0
  9
$DIMTOFL
 70
     1
  9
$DIMTVP
 40
0.0
  9
$DIMTIX
 70
     0
  9
$DIMSOXD
 70
     0
  9
$DIMSAH
 70
     0
  9
$DIMBLK1
  1

  9
$DIMBLK2
  1

  9
$DIMSTYLE
  2
ISO-25
  9
$DIMCLRD
 70
     0
  9
$DIMCLRE
 70
     0
  9
$DIMCLRT
 70
     0
  9
$DIMTFAC
 40
1.0
  9
$DIMGAP
 40
3.0
  9
$DIMJUST
 70
     0
  9
$DIMSD1
 70
     0
  9
$DIMSD2
 70
     0
  9
$DIMTOLJ
 70
     0
  9
$DIMTZIN
 70
     0
  9
$DIMALTZ
 70
     0
  9
$DIMALTTZ
 70
     0
  9
$DIMUPT
 70
     0
  9
$DIMDEC
 70
     2
  9
$DIMTDEC
 70
     4
  9
$DIMALTU
 70
     2
  9
$DIMALTTD
 70
     3
  9
$DIMTXSTY
  7
Standard
  9
$DIMAUNIT
 70
     0
  9
$DIMADEC
 70
     2
  9
$DIMALTRND
 40
0.0
  9
$DIMAZIN
 70
     0
  9
$DIMDSEP
 70
    44
  9
$DIMATFIT
 70
     3
  9
$DIMFRAC
 70
     0
  9
$DIMLDRBLK
  1

  9
$DIMLUNIT
 70
     2
  9
$DIMLWD
 70
    -2
  9
$DIMLWE
 70
    -2
  9
$DIMTMOVE
 70
     0
  9
$LUNITS
 70
     2
  9
$LUPREC
 70
     2
  9
$SKETCHINC
 40
1.0
  9
$FILLETRAD
 40
10.0
  9
$AUNITS
 70
     0
  9
$AUPREC
 70
     2
  9
$MENU
  1
.
  9
$ELEVATION
 40
0.0
  9
$PELEVATION
 40
0.0
  9
$THICKNESS
 40
0.0
  9
$LIMCHECK
 70
     0
  9
$CHAMFERA
 40
0.0
  9
$CHAMFERB
 40
0.0
  9
$CHAMFERC
 40
0.0
  9
$CHAMFERD
 40
0.0
  9
$SKPOLY
 70
     0
  9
$TDCREATE
 40
2458703.418710081
  9
$TDUCREATE
 40
2458703.293710081
  9
$TDUPDATE
 40
2458703.418750023
  9
$TDUUPDATE
 40
2458703.293750023
  9
$TDINDWG
 40
0.0000000116
  9
$TDUSRTIMER
 40
0.0000000116
  9
$USRTIMER
 70
     1
  9
$ANGBASE
 50
0.0
  9
$ANGDIR
 70
     0
  9
$PDMODE
 70
     0
  9
$PDSIZE
 40
-1.0
  9
$PLINEWID
 40
0.0
  9
$SPLFRAME
 70
     0
  9
$SPLINETYPE
 70
     6
  9
$SPLINESEGS
 70
     8
  9
$HANDSEED
  5
B64
  9
$SURFTAB1
 70
     6
  9
$SURFTAB2
 70
     6
  9
$SURFTYPE
 70
     6
  9
$SURFU
 70
     6
  9
$SURFV
 70
     6
  9
$UCSBASE
  2

  9
$UCSNAME
  2

  9
$UCSORG
 10
0.0
 20
0.0
 30
0.0
  9
$UCSXDIR
 10
1.0
 20
0.0
 30
0.0
  9
$UCSYDIR
 10
0.0
 20
1.0
 30
0.0
  9
$UCSORTHOREF
  2

  9
$UCSORTHOVIEW
 70
     0
  9
$UCSORGTOP
 10
0.0
 20
0.0
 30
0.0
  9
$UCSORGBOTTOM
 10
0.0
 20
0.0
 30
0.0
  9
$UCSORGLEFT
 10
0.0
 20
0.0
 30
0.0
  9
$UCSORGRIGHT
 10
0.0
 20
0.0
 30
0.0
  9
$UCSORGFRONT
 10
0.0
 20
0.0
 30
0.0
  9
$UCSORGBACK
 10
0.0
 20
0.0
 30
0.0
  9
$PUCSBASE
  2

  9
$PUCSNAME
  2

  9
$PUCSORG
 10
0.0
 20
0.0
 30
0.0
  9
$PUCSXDIR
 10
1.0
 20
0.0
 30
0.0
  9
$PUCSYDIR
 10
0.0
 20
1.0
 30
0.0
  9
$PUCSORTHOREF
  2

  9
$PUCSORTHOVIEW
 70
     0
  9
$PUCSORGTOP
 10
0.0
 20
0.0
 30
0.0
  9
$PUCSORGBOTTOM
 10
0.0
 20
0.0
 30
0.0
  9
$PUCSORGLEFT
 10
0.0
 20
0.0
 30
0.0
  9
$PUCSORGRIGHT
 10
0.0
 20
0.0
 30
0.0
  9
$PUCSORGFRONT
 10
0.0
 20
0.0
 30
0.0
  9
$PUCSORGBACK
 10
0.0
 20
0.0
 30
0.0
  9
$USERI1
 70
     0
  9
$USERI2
 70
     0
  9
$USERI3
 70
     0
  9
$USERI4
 70
     0
  9
$USERI5
 70
     0
  9
$USERR1
 40
0.0
  9
$USERR2
 40
0.0
  9
$USERR3
 40
0.0
  9
$USERR4
 40
0.0
  9
$USERR5
 40
0.0
  9
$WORLDVIEW
 70
     1
  9
$SHADEDGE
 70
     3
  9
$SHADEDIF
 70
    70
  9
$TILEMODE
 70
     1
  9
$MAXACTVP
 70
    64
  9
$PINSBASE
 10
0.0
 20
0.0
 30
0.0
  9
$PLIMCHECK
 70
     0
  9
$PEXTMIN
 10
1.0000000000E+20
 20
1.0000000000E+20
 30
1.0000000000E+20
  9
$PEXTMAX
 10
-1.0000000000E+20
 20
-1.0000000000E+20
 30
-1.0000000000E+20
  9
$PLIMMIN
 10
0.0
 20
0.0
  9
$PLIMMAX
 10
420.0
 20
297.0
  9
$UNITMODE
 70
     0
  9
$VISRETAIN
 70
     1
  9
$PLINEGEN
 70
     0
  9
$PSLTSCALE
 70
     1
  9
$TREEDEPTH
 70
  3020
  9
$CMLSTYLE
  2
Standard
  9
$CMLJUST
 70
     0
  9
$CMLSCALE
 40
20.0
  9
$PROXYGRAPHICS
 70
     1
  9
$MEASUREMENT
 70
     1
  9
$CELWEIGHT
370
    -1
  9
$ENDCAPS
280
     0
  9
$JOINSTYLE
280
     0
  9
$LWDISPLAY
290
     1
  9
$INSUNITS
 70
     4
  9
$HYPERLINKBASE
  1

  9
$STYLESHEET
  1

  9
$XEDIT
290
     1
  9
$CEPSNTYPE
380
     0
  9
$PSTYLEMODE
290
     1
  9
$FINGERPRINTGUID
  2
{3DD4FBCA-72EF-4401-9A0E-951AFA14D0F2}
  9
$VERSIONGUID
  2
{FAEB1C32-E019-11D5-929B-00C0DF256EC4}
  9
$EXTNAMES
290
     1
  9
$PSVPSCALE
 40
0.0
  9
$OLESTARTUP
290
     0
  0
ENDSEC
  0
SECTION
  2
CLASSES
  0
CLASS
  1
ACDBDICTIONARYWDFLT
  2
AcDbDictionaryWithDefault
  3
ObjectDBX Classes
 90
        0
280
     0
281
     0
  0
CLASS
  1
VISUALSTYLE
  2
AcDbVisualStyle
  3
ObjectDBX Classes
 90
     4095
280
     0
281
     0
  0
CLASS
  1
MATERIAL
  2
AcDbMaterial
  3
ObjectDBX Classes
 90
     1153
280
     0
281
     0
  0
CLASS
  1
SCALE
  2
AcDbScale
  3
ObjectDBX Classes
 90
     1153
280
     0
281
     0
  0
CLASS
  1
TABLESTYLE
  2
AcDbTableStyle
  3
ObjectDBX Classes
 90
     4095
280
     0
281
     0
  0
CLASS
  1
MLEADERSTYLE
  2
AcDbMLeaderStyle
  3
ACDB_MLEADERSTYLE_CLASS
 90
     4095
280
     0
281
     0
  0
CLASS
  1
SUN
  2
AcDbSun
  3
SCENEOE
 90
     1153
280
     0
281
     0
  0
CLASS
  1
ACDBPLACEHOLDER
  2
AcDbPlaceHolder
  3
ObjectDBX Classes
 90
        0
280
     0
281
     0
  0
CLASS
  1
LAYOUT
  2
AcDbLayout
  3
ObjectDBX Classes
 90
        0
280
     0
281
     0
  0
ENDSEC
  0
SECTION
  2
TABLES
  0
TABLE
  2
VPORT
  5
8
330
0
100
AcDbSymbolTable
 70
     1
  0
VPORT
  5
29
330
8
100
AcDbSymbolTableRecord
100
AcDbViewportTableRecord
  2
*Active
 70
     0
 10
0.0
 20
0.0
 11
1.0
 21
1.0
 12
0.0
 22
0.0
 13
0.0
 23
0.0
 14
10.0
 24
10.0
 15
10.0
 25
10.0
 16
0.0
 26
0.0
 36
1.0
 17
0.0
 27
0.0
 37
0.0
 40
815.9840623444
 41
1.0
 42
50.0
 43
0.0
 44
0.0
 50
0.0
 51
0.0
 71
     0
 72
   100
 73
     1
 74
     3
 75
     0
 76
     0
 77
     0
 78
     0
281
     0
 65
     1
110
0.0
120
0.0
130
0.0
111
1.0
121
0.0
131
0.0
112
0.0
122
1.0
132
0.0
 79
     0
146
0.0
  0
ENDTAB
  0
TABLE
  2
LTYPE
  5
5
330
0
100
AcDbSymbolTable
 70
     6
  0
LTYPE
  5
14
330
5
100
AcDbSymbolTableRecord
100
AcDbLinetypeTableRecord
  2
ByBlock
 70
     0
  3

 72
    65
 73
     0
 40
0.0
  0
LTYPE
  5
15
330
5
100
AcDbSymbolTableRecord
100
AcDbLinetypeTableRecord
  2
ByLayer
 70
     0
  3

 72
    65
 73
     0
 40
0.0
  0
LTYPE
  5
16
330
5
100
AcDbSymbolTableRecord
100
AcDbLinetypeTableRecord
  2
Continuous
 70
     0
  3
Solid line
 72
    65
 73
     0
 40
0.0
  0
LTYPE
  5
6E
330
5
100
AcDbSymbolTableRecord
100
AcDbLinetypeTableRecord
  2
HIDDEN
 70
     0
  3
Hidden __ __ __ __ __ __ __ __ __ __ __ __ __ __
 72
    65
 73
     2
 40
1.905
 49
1.27
 74
     0
 49
-0.635
 74
     0
  0
LTYPE
  5
6F
330
5
100
AcDbSymbolTableRecord
100
AcDbLinetypeTableRecord
  2
PHANTOM
 70
     0
  3
Phantom ______  __  __  ______  __  __  ______
 72
    65
 73
     6
 40
12.7
 49
6.35
 74
     0
 49
-1.27
 74
     0
 49
1.27
 74
     0
 49
-1.27
 74
     0
 49
1.27
 74
     0
 49
-1.27
 74
     0
  0
LTYPE
  5
70
330
5
100
AcDbSymbolTableRecord
100
AcDbLinetypeTableRecord
  2
CENTER
 70
     0
  3
Center ____ _ ____ _ ____ _ ____ _ ____ _ ____
 72
    65
 73
     4
 40
10.16
 49
6.35
 74
     0
 49
-1.27
 74
     0
 49
1.27
 74
     0
 49
-1.27
 74
     0
  0
LTYPE
  5
71
330
5
100
AcDbSymbolTableRecord
100
AcDbLinetypeTableRecord
  2
CENTERX2
 70
     0
  3
Center (2x) ________  __  ________  __  _____
 72
    65
 73
     4
 40
20.32
 49
12.7
 74
     0
 49
-2.54
 74
     0
 49
2.54
 74
     0
 49
-2.54
 74
     0
  0
LTYPE
  5
72
330
5
100
AcDbSymbolTableRecord
100
AcDbLinetypeTableRecord
  2
DOT2
 70
     0
  3
Dot (.5x) ........................................
 72
    65
 73
     2
 40
0.635
 49
0.0
 74
     0
 49
-0.635
 74
     0
  0
ENDTAB
  0
TABLE
  2
LAYER
  5
2
330
0
100
AcDbSymbolTable
 70
     1
  0
LAYER
  5
10
330
2
100
AcDbSymbolTableRecord
100
AcDbLayerTableRecord
  2
0
 70
     0
 62
     7
  6
Continuous
370
    -3
390
F
  0
ENDTAB
  0
TABLE
  2
STYLE
  5
3
330
0
100
AcDbSymbolTable
 70
     1
  0
STYLE
  5
11
330
3
100
AcDbSymbolTableRecord
100
AcDbTextStyleTableRecord
  2
Standard
 70
     0
 40
0.0
 41
1.0
 50
0.0
 71
     0
 42
4.0
  3
txt
  4

  0
ENDTAB
  0
TABLE
  2
VIEW
  5
6
330
0
100
AcDbSymbolTable
 70
     0
  0
ENDTAB
  0
TABLE
  2
UCS
  5
7
330
0
100
AcDbSymbolTable
 70
     0
  0
ENDTAB
  0
TABLE
  2
APPID
  5
9
330
0
100
AcDbSymbolTable
 70
     1
  0
APPID
  5
12
330
9
100
AcDbSymbolTableRecord
100
AcDbRegAppTableRecord
  2
ACAD
 70
     0
  0
ENDTAB
  0
TABLE
  2
DIMSTYLE
  5
A
330
0
100
AcDbSymbolTable
 70
     1
100
AcDbDimStyleTable
  0
DIMSTYLE
105
27
330
A
100
AcDbSymbolTableRecord
100
AcDbDimStyleTableRecord
  2
ISO-25
 70
     0
 41
2.5
 42
0.625
 43
3.75
 44
1.25
 73
     0
 74
     0
 77
     1
 78
     8
140
2.5
141
2.5
143
0.0393700787
147
0.625
171
     3
172
     1
178
     0
271
     2
272
     2
274
     3
278
    44
283
     0
284
     8
340
11
  0
ENDTAB
  0
TABLE
  2
BLOCK_RECORD
  5
1
330
0
100
AcDbSymbolTable
 70
     1
  0
BLOCK_RECORD
  5
1F
330
1
100
AcDbSymbolTableRecord
100
AcDbBlockTableRecord
  2
*Model_Space
340
22
  0
BLOCK_RECORD
  5
1B
330
1
100
AcDbSymbolTableRecord
100
AcDbBlockTableRecord
  2
*Paper_Space
340
1E
  0
BLOCK_RECORD
  5
23
330
1
100
AcDbSymbolTableRecord
100
AcDbBlockTableRecord
  2
*Paper_Space0
340
26
  0
ENDTAB
  0
ENDSEC
  0
SECTION
  2
BLOCKS
  0
BLOCK
  5
20
330
1F
100
AcDbEntity
  8
0
100
AcDbBlockBegin
  2
*Model_Space
 70
     0
 10
0.0
 20
0.0
 30
0.0
  3
*Model_Space
  1

  0
ENDBLK
  5
21
330
1F
100
AcDbEntity
  8
0
100
AcDbBlockEnd
  0
BLOCK
  5
1C
330
1B
100
AcDbEntity
 67
     1
  8
0
100
AcDbBlockBegin
  2
*Paper_Space
 70
     0
 10
0.0
 20
0.0
 30
0.0
  3
*Paper_Space
  1

  0
ENDBLK
  5
1D
330
1B
100
AcDbEntity
 67
     1
  8
0
100
AcDbBlockEnd
  0
BLOCK
  5
24
330
23
100
AcDbEntity
  8
0
100
AcDbBlockBegin
  2
*Paper_Space0
 70
     0
 10
0.0
 20
0.0
 30
0.0
  3
*Paper_Space0
  1

  0
ENDBLK
  5
25
330
23
100
AcDbEntity
  8
0
100
AcDbBlockEnd
  0
ENDSEC
  0
SECTION
  2
ENTITIES
  0
CIRCLE
  5
73
330
1F
100
AcDbEntity
  8
0
  6
Continuous
 62
     7
370
    15
100
AcDbCircle
 10
-276.1251980534
 20
-276.1251980533
 30
0.0
 40
5.199999999999932
  0
CIRCLE
  5
5E3
330
1F
100
AcDbEntity
  8
0
  6
Continuous
 62
     7
370
    15
100
AcDbCircle
 10
0.0
 20
0.0
 30
0.0
 40
381.0000000000002
  0
CIRCLE
  5
5E4
330
1F
100
AcDbEntity
  8
0
  6
Continuous
 62
     7
370
    15
100
AcDbCircle
 10
0.0
 20
-390.5
 30
0.0
 40
5.19999999999999
  0
CIRCLE
  5
5E5
330
1F
100
AcDbEntity
  8
0
  6
Continuous
 62
     7
370
    15
100
AcDbCircle
 10
276.1251980533
 20
-276.1251980533
 30
0.0
 40
5.199999999999989
  0
CIRCLE
  5
5E6
330
1F
100
AcDbEntity
  8
0
  6
Continuous
 62
     7
370
    15
100
AcDbCircle
 10
390.5
 20
0.0
 30
0.0
 40
5.199999999999989
  0
CIRCLE
  5
5E7
330
1F
100
AcDbEntity
  8
0
  6
Continuous
 62
     7
370
    15
100
AcDbCircle
 10
276.1251980534
 20
276.1251980533
 30
0.0
 40
5.200000000000045
  0
CIRCLE
  5
5E8
330
1F
100
AcDbEntity
  8
0
  6
Continuous
 62
     7
370
    15
100
AcDbCircle
 10
0.0
 20
390.5
 30
0.0
 40
5.200000000000005
  0
CIRCLE
  5
5E9
330
1F
100
AcDbEntity
  8
0
  6
Continuous
 62
     7
370
    15
100
AcDbCircle
 10
-276.1251980533
 20
276.1251980534
 30
0.0
 40
5.199999999999932
  0
CIRCLE
  5
5EA
330
1F
100
AcDbEntity
  8
0
  6
Continuous
 62
     7
370
    15
100
AcDbCircle
 10
-390.5
 20
0.0
 30
0.0
 40
5.199999999999932
  0
CIRCLE
  5
5EC
330
1F
100
AcDbEntity
  8
0
  6
Continuous
 62
     7
370
    15
100
AcDbCircle
 10
-390.5
 20
0.0
 30
0.0
 40
2.75
  0
CIRCLE
  5
5ED
330
1F
100
AcDbEntity
  8
0
  6
Continuous
 62
     7
370
    15
100
AcDbCircle
 10
0.0
 20
390.5
 30
0.0
 40
2.75
  0
CIRCLE
  5
5EE
330
1F
100
AcDbEntity
  8
0
  6
Continuous
 62
     7
370
    15
100
AcDbCircle
 10
-276.1251980534
 20
-276.1251980533
 30
0.0
 40
2.75
  0
CIRCLE
  5
5EF
330
1F
100
AcDbEntity
  8
0
  6
Continuous
 62
     7
370
    15
100
AcDbCircle
 10
-276.1251980533
 20
276.1251980534
 30
0.0
 40
2.75
  0
CIRCLE
  5
5F0
330
1F
100
AcDbEntity
  8
0
  6
Continuous
 62
     7
370
    15
100
AcDbCircle
 10
0.0
 20
-390.5
 30
0.0
 40
2.75
  0
CIRCLE
  5
5F1
330
1F
100
AcDbEntity
  8
0
  6
Continuous
 62
     7
370
    15
100
AcDbCircle
 10
276.1251980534
 20
276.1251980533
 30
0.0
 40
2.750000000000057
  0
CIRCLE
  5
5F2
330
1F
100
AcDbEntity
  8
0
  6
Continuous
 62
     7
370
    15
100
AcDbCircle
 10
276.1251980533
 20
-276.1251980533
 30
0.0
 40
2.750000000000057
  0
CIRCLE
  5
5F3
330
1F
100
AcDbEntity
  8
0
  6
Continuous
 62
     7
370
    15
100
AcDbCircle
 10
390.5
 20
0.0
 30
0.0
 40
2.750000000000057
  0
LINE
  5
5F4
330
1F
100
AcDbEntity
  8
0
  6
Continuous
 62
     7
370
    15
100
AcDbLine
 10
19.1588069352
 20
399.5409116934
 30
0.0
 11
16.9390534776
 21
399.6411746396
 31
0.0
  0
LINE
  5
5F5
330
1F
100
AcDbEntity
  8
0
  6
Continuous
 62
     7
370
    15
100
AcDbLine
 10
19.1588069352
 20
399.5409116934
 30
0.0
 11
20.7030631972
 21
395.6987854248
 31
0.0
  0
LINE
  5
5F6
330
1F
100
AcDbEntity
  8
0
  6
Continuous
 62
     7
370
    15
100
AcDbLine
 10
24.1514740044
 20
399.2702171505
 30
0.0
 11
22.200863318
 21
395.6175770619
 31
0.0
  0
LINE
  5
5F7
330
1F
100
AcDbEntity
  8
0
  6
Continuous
 62
     7
370
    15
100
AcDbLine
 10
26.3690555035
 20
399.129894786
 30
0.0
 11
24.1514740044
 21
399.2702171505
 31
0.0
  0
LINE
  5
5F8
330
1F
100
AcDbEntity
  8
0
  6
Continuous
 62
     7
370
    15
100
AcDbLine
 10
26.3690555035
 20
399.129894786
 30
0.0
 11
27.8436937469
 21
395.2605145103
 31
0.0
  0
LINE
  5
5F9
330
1F
100
AcDbEntity
  8
0
  6
Continuous
 62
     7
370
    15
100
AcDbLine
 10
31.3560216611
 20
398.769106007
 30
0.0
 11
29.3397835942
 21
395.1522778766
 31
0.0
  0
LINE
  5
5FA
330
1F
100
AcDbEntity
  8
0
  6
Continuous
 62
     7
370
    15
100
AcDbLine
 10
33.5707083168
 20
398.5887699661
 30
0.0
 11
31.3560216611
 21
398.769106007
 31
0.0
  0
LINE
  5
5FB
330
1F
100
AcDbEntity
  8
0
  6
Continuous
 62
     7
370
    15
100
AcDbLine
 10
33.5707083168
 20
398.5887699661
 30
0.0
 11
34.9752478408
 21
394.6933970196
 31
0.0
  0
LINE
  5
5FC
330
1F
100
AcDbEntity
  8
0
  6
Continuous
 62
     7
370
    15
100
AcDbLine
 10
38.5503479172
 20
398.1380045606
 30
0.0
 11
36.4691397209
 21
394.5581673979
 31
0.0
  0
LINE
  5
5FD
330
1F
100
AcDbEntity
  8
0
  6
Continuous
 62
     7
370
    15
100
AcDbLine
 10
40.7614177886
 20
397.9177136292
 30
0.0
 11
38.5503479172
 21
398.1380045606
 31
0.0
  0
LINE
  5
5FE
330
1F
100
AcDbEntity
  8
0
  6
Continuous
 62
     7
370
    15
100
AcDbLine
 10
40.7614177886
 20
397.9177136292
 30
0.0
 11
42.0954007429
 21
393.9976178211
 31
0.0
  0
LINE
  5
5FF
330
1F
100
AcDbEntity
  8
0
  6
Continuous
 62
     7
370
    15
100
AcDbLine
 10
45.7321075744
 20
397.377118537
 30
0.0
 11
43.5866076787
 21
393.8354392934
 31
0.0
  0
LINE
  5
600
330
1F
100
AcDbEntity
  8
0
  6
Continuous
 62
     7
370
    15
100
AcDbLine
 10
47.9388398994
 20
397.1169445253
 30
0.0
 11
45.7321075744
 21
397.377118537
 31
0.0
  0
LINE
  5
601
330
1F
100
AcDbEntity
  8
0
  6
Continuous
 62
     7
370
    15
100
AcDbLine
 10
47.9388398994
 20
397.1169445253
 30
0.0
 11
49.2018314339
 21
393.173403724
 31
0.0
  0
LINE
  5
602
330
1F
100
AcDbEntity
  8
0
  6
Continuous
 62
     7
370
    15
100
AcDbLine
 10
52.8989595308
 20
396.4866959692
 30
0.0
 11
50.6898673233
 21
392.9843291572
 31
0.0
  0
LINE
  5
603
330
1F
100
AcDbEntity
  8
0
  6
Continuous
 62
     7
370
    15
100
AcDbLine
 10
55.1006349614
 20
396.1867236883
 30
0.0
 11
52.8989595308
 21
396.4866959692
 31
0.0
  0
LINE
  5
604
330
1F
100
AcDbEntity
  8
0
  6
Continuous
 62
     7
370
    15
100
AcDbLine
 10
55.1006349614
 20
396.1867236883
 30
0.0
 11
56.2922233673
 21
392.2210234049
 31
0.0
  0
LINE
  5
605
330
1F
100
AcDbEntity
  8
0
  6
Continuous
 62
     7
370
    15
100
AcDbLine
 10
60.0485675442
 20
395.4670271159
 30
0.0
 11
57.7766031421
 21
392.0051144331
 31
0.0
  0
LINE
  5
606
330
1F
100
AcDbEntity
  8
0
  6
Continuous
 62
     7
370
    15
100
AcDbLine
 10
62.2444683806
 20
395.1273543505
 30
0.0
 11
60.0485675442
 21
395.4670271159
 31
0.0
  0
LINE
  5
607
330
1F
100
AcDbEntity
  8
0
  6
Continuous
 62
     7
370
    15
100
AcDbLine
 10
62.2444683806
 20
395.1273543505
 30
0.0
 11
63.3642652254
 21
391.1407873194
 31
0.0
  0
LINE
  5
608
330
1F
100
AcDbEntity
  8
0
  6
Continuous
 62
     7
370
    15
100
AcDbLine
 10
67.1786009933
 20
394.3184443677
 30
0.0
 11
64.8445050092
 21
390.8981143246
 31
0.0
  0
LINE
  5
609
330
1F
100
AcDbEntity
  8
0
  6
Continuous
 62
     7
370
    15
100
AcDbLine
 10
69.3680114182
 20
393.9391818439
 30
0.0
 11
67.1786009933
 21
394.3184443677
 31
0.0
  0
LINE
  5
60A
330
1F
100
AcDbEntity
  8
0
  6
Continuous
 62
     7
370
    15
100
AcDbLine
 10
69.3680114182
 20
393.9391818439
 30
0.0
 11
70.4156516718
 21
389.9330476018
 31
0.0
  0
LINE
  5
60B
330
1F
100
AcDbEntity
  8
0
  6
Continuous
 62
     7
370
    15
100
AcDbLine
 10
74.2867356379
 20
393.0413221384
 30
0.0
 11
71.8912689377
 21
389.6636896901
 31
0.0
  0
LINE
  5
60C
330
1F
100
AcDbEntity
  8
0
  6
Continuous
 62
     7
370
    15
100
AcDbLine
 10
76.4689419499
 20
392.6225934878
 30
0.0
 11
74.2867356379
 21
393.0413221384
 31
0.0
  0
LINE
  5
60D
330
1F
100
AcDbEntity
  8
0
  6
Continuous
 62
     7
370
    15
100
AcDbLine
 10
76.4689419499
 20
392.6225934878
 30
0.0
 11
77.4440841036
 21
388.5981979497
 31
0.0
  0
LINE
  5
60E
330
1F
100
AcDbEntity
  8
0
  6
Continuous
 62
     7
370
    15
100
AcDbLine
 10
81.3706543763
 20
391.6360767426
 30
0.0
 11
78.9145978316
 21
388.3022429261
 31
0.0
  0
LINE
  5
60F
330
1F
100
AcDbEntity
  8
0
  6
Continuous
 62
     7
370
    15
100
AcDbLine
 10
83.5449452222
 20
391.178018462
 30
0.0
 11
81.3706543763
 21
391.6360767426
 31
0.0
  0
LINE
  5
610
330
1F
100
AcDbEntity
  8
0
  6
Continuous
 62
     7
370
    15
100
AcDbLine
 10
83.5449452222
 20
391.178018462
 30
0.0
 11
84.4472714004
 21
387.1366734958
 31
0.0
  0
LINE
  5
611
330
1F
100
AcDbEntity
  8
0
  6
Continuous
 62
     7
370
    15
100
AcDbLine
 10
88.4280480007
 20
390.1031662609
 30
0.0
 11
85.9122022339
 21
386.8142178355
 31
0.0
  0
LINE
  5
612
330
1F
100
AcDbEntity
  8
0
  6
Continuous
 62
     7
370
    15
100
AcDbLine
 10
90.5937146076
 20
389.6059276674
 30
0.0
 11
88.4280480007
 21
390.1031662609
 31
0.0
  0
LINE
  5
613
330
1F
100
AcDbEntity
  8
0
  6
Continuous
 62
     7
370
    15
100
AcDbLine
 10
90.5937146076
 20
389.6059276674
 30
0.0
 11
91.4229306709
 21
385.5489506663
 31
0.0
  0
LINE
  5
614
330
1F
100
AcDbEntity
  8
0
  6
Continuous
 62
     7
370
    15
100
AcDbLine
 10
95.4566159499
 20
388.4430903896
 30
0.0
 11
92.8818010736
 21
385.200099483
 31
0.0
  0
LINE
  5
615
330
1F
100
AcDbEntity
  8
0
  6
Continuous
 62
     7
370
    15
100
AcDbLine
 10
97.6129523562
 20
387.9068335726
 30
0.0
 11
95.4566159499
 21
388.4430903896
 31
0.0
  0
LINE
  5
616
330
1F
100
AcDbEntity
  8
0
  6
Continuous
 62
     7
370
    15
100
AcDbLine
 10
97.6129523562
 20
387.9068335726
 30
0.0
 11
98.3687879978
 21
383.8355470253
 31
0.0
  0
LINE
  5
617
330
1F
100
AcDbEntity
  8
0
  6
Continuous
 62
     7
370
    15
100
AcDbLine
 10
102.4540670592
 20
386.6563902783
 30
0.0
 11
99.8211224087
 21
383.460414037
 31
0.0
  0
LINE
  5
618
330
1F
100
AcDbEntity
  8
0
  6
Continuous
 62
     7
370
    15
100
AcDbLine
 10
104.6003703448
 20
386.0812900462
 30
0.0
 11
102.4540670592
 21
386.6563902783
 31
0.0
  0
LINE
  5
619
330
1F
100
AcDbEntity
  8
0
  6
Continuous
 62
     7
370
    15
100
AcDbLine
 10
104.6003703448
 20
386.0812900462
 30
0.0
 11
105.2825791783
 21
381.9970211061
 31
0.0
  0
LINE
  5
61A
330
1F
100
AcDbEntity
  8
0
  6
Continuous
 62
     7
370
    15
100
AcDbLine
 10
109.4181203074
 20
384.7436483535
 30
0.0
 11
106.7279041671
 21
381.5957285983
 31
0.0
  0
LINE
  5
61B
330
1F
100
AcDbEntity
  8
0
  6
Continuous
 62
     7
370
    15
100
AcDbLine
 10
111.5536908229
 20
384.1298921768
 30
0.0
 11
109.4181203074
 21
384.7436483535
 31
0.0
  0
LINE
  5
61C
330
1F
100
AcDbEntity
  8
0
  6
Continuous
 62
     7
370
    15
100
AcDbLine
 10
111.5536908229
 20
384.1298921768
 30
0.0
 11
112.1620504625
 21
380.0339722294
 31
0.0
  0
LINE
  5
61D
330
1F
100
AcDbEntity
  8
0
  6
Continuous
 62
     7
370
    15
100
AcDbLine
 10
116.3465055604
 20
382.7054881288
 30
0.0
 11
113.5998948837
 21
379.606651015
 31
0.0
  0
LINE
  5
61E
330
1F
100
AcDbEntity
  8
0
  6
Continuous
 62
     7
370
    15
100
AcDbLine
 10
118.4706471548
 20
382.053276079
 30
0.0
 11
116.3465055604
 21
382.7054881288
 31
0.0
  0
LINE
  5
61F
330
1F
100
AcDbEntity
  8
0
  6
Continuous
 62
     7
370
    15
100
AcDbLine
 10
118.4706471548
 20
382.053276079
 30
0.0
 11
119.0049592881
 21
377.9470403075
 31
0.0
  0
LINE
  5
620
330
1F
100
AcDbEntity
  8
0
  6
Continuous
 62
     7
370
    15
100
AcDbLine
 10
123.2369643108
 20
380.5425740012
 30
0.0
 11
120.4348544349
 21
377.4938296842
 31
0.0
  0
LINE
  5
621
330
1F
100
AcDbEntity
  8
0
  6
Continuous
 62
     7
370
    15
100
AcDbLine
 10
125.3489845589
 20
379.8521186858
 30
0.0
 11
123.2369643108
 21
380.5425740012
 31
0.0
  0
LINE
  5
622
330
1F
100
AcDbEntity
  8
0
  6
Continuous
 62
     7
370
    15
100
AcDbLine
 10
125.3489845589
 20
379.8521186858
 30
0.0
 11
125.8090750115
 21
375.7369056363
 31
0.0
  0
LINE
  5
623
330
1F
100
AcDbEntity
  8
0
  6
Continuous
 62
     7
370
    15
100
AcDbLine
 10
130.0872504148
 20
378.2556110351
 30
0.0
 11
127.2305547683
 21
375.2579533411
 31
0.0
  0
LINE
  5
624
330
1F
100
AcDbEntity
  8
0
  6
Continuous
 62
     7
370
    15
100
AcDbLine
 10
132.1864608425
 20
377.5271375278
 30
0.0
 11
130.0872504148
 21
378.2556110351
 31
0.0
  0
LINE
  5
625
330
1F
100
AcDbEntity
  8
0
  6
Continuous
 62
     7
370
    15
100
AcDbLine
 10
132.1864608425
 20
377.5271375278
 30
0.0
 11
132.5721796347
 21
373.4042886729
 31
0.0
  0
LINE
  5
626
330
1F
100
AcDbEntity
  8
0
  6
Continuous
 62
     7
370
    15
100
AcDbLine
 10
136.8951308238
 20
375.845344732
 30
0.0
 11
133.9847806291
 21
372.8997508341
 31
0.0
  0
LINE
  5
627
330
1F
100
AcDbEntity
  8
0
  6
Continuous
 62
     7
370
    15
100
AcDbLine
 10
138.980847133
 20
375.0790904998
 30
0.0
 11
136.8951308238
 21
375.845344732
 31
0.0
  0
LINE
  5
628
330
1F
100
AcDbEntity
  8
0
  6
Continuous
 62
     7
370
    15
100
AcDbLine
 10
138.980847133
 20
375.0790904998
 30
0.0
 11
139.2920685285
 21
370.9499498011
 31
0.0
  0
LINE
  5
629
330
1F
100
AcDbEntity
  8
0
  6
Continuous
 62
     7
370
    15
100
AcDbLine
 10
143.6583863126
 20
373.3125607879
 30
0.0
 11
140.6953302824
 21
370.4199908875
 31
0.0
  0
LINE
  5
62A
330
1F
100
AcDbEntity
  8
0
  6
Continuous
 62
     7
370
    15
100
AcDbLine
 10
145.7299286038
 20
372.5087756136
 30
0.0
 11
143.6583863126
 21
373.3125607879
 31
0.0
  0
LINE
  5
62B
330
1F
100
AcDbEntity
  8
0
  6
Continuous
 62
     7
370
    15
100
AcDbLine
 10
145.7299286038
 20
372.5087756136
 30
0.0
 11
145.9665511511
 21
368.3746890836
 31
0.0
  0
LINE
  5
62C
330
1F
100
AcDbEntity
  8
0
  6
Continuous
 62
     7
370
    15
100
AcDbLine
 10
150.3748122029
 20
370.6580848369
 30
0.0
 11
147.3600162308
 21
367.8194818506
 31
0.0
  0
LINE
  5
62D
330
1F
100
AcDbEntity
  8
0
  6
Continuous
 62
     7
370
    15
100
AcDbLine
 10
152.4315051971
 20
369.8170307373
 30
0.0
 11
150.3748122029
 21
370.6580848369
 31
0.0
  0
LINE
  5
62E
330
1F
100
AcDbEntity
  8
0
  6
Continuous
 62
     7
370
    15
100
AcDbLine
 10
152.4315051971
 20
369.8170307373
 30
0.0
 11
152.5934517622
 21
365.679346001
 31
0.0
  0
LINE
  5
62F
330
1F
100
AcDbEntity
  8
0
  6
Continuous
 62
     7
370
    15
100
AcDbLine
 10
157.0422190818
 20
367.8827821819
 30
0.0
 11
153.9766659276
 21
365.0990714343
 31
0.0
  0
LINE
  5
630
330
1F
100
AcDbEntity
  8
0
  6
Continuous
 62
     7
370
    15
100
AcDbLine
 10
159.0833923405
 20
367.0047333229
 30
0.0
 11
157.0422190818
 21
367.8827821819
 31
0.0
  0
LINE
  5
631
330
1F
100
AcDbEntity
  8
0
  6
Continuous
 62
     7
370
    15
100
AcDbLine
 10
159.0833923405
 20
367.0047333229
 30
0.0
 11
159.1706101322
 21
362.8647991781
 31
0.0
  0
LINE
  5
632
330
1F
100
AcDbEntity
  8
0
  6
Continuous
 62
     7
370
    15
100
AcDbLine
 10
163.6584335154
 20
364.987557513
 30
0.0
 11
160.5431224847
 21
362.2596464351
 31
0.0
  0
LINE
  5
633
330
1F
100
AcDbEntity
  8
0
  6
Continuous
 62
     7
370
    15
100
AcDbLine
 10
165.6834216593
 20
364.0728001201
 30
0.0
 11
163.6584335154
 21
364.987557513
 31
0.0
  0
LINE
  5
634
330
1F
100
AcDbEntity
  8
0
  6
Continuous
 62
     7
370
    15
100
AcDbLine
 10
165.6834216593
 20
364.0728001201
 30
0.0
 11
165.6958822465
 21
359.9319660977
 31
0.0
  0
LINE
  5
635
330
1F
100
AcDbEntity
  8
0
  6
Continuous
 62
     7
370
    15
100
AcDbLine
 10
170.2212987576
 20
361.9733546123
 30
0.0
 11
167.057245376
 21
359.3021324454
 31
0.0
  0
LINE
  5
636
330
1F
100
AcDbEntity
  8
0
  6
Continuous
 62
     7
370
    15
100
AcDbLine
 10
172.2294416834
 20
361.022186877
 30
0.0
 11
170.2212987576
 21
361.9733546123
 31
0.0
  0
LINE
  5
637
330
1F
100
AcDbEntity
  8
0
  6
Continuous
 62
     7
370
    15
100
AcDbLine
 10
172.2294416834
 20
361.022186877
 30
0.0
 11
172.1671410041
 21
356.8818028015
 31
0.0
  0
LINE
  5
638
330
1F
100
AcDbEntity
  8
0
  6
Continuous
 62
     7
370
    15
100
AcDbLine
 10
176.7286754532
 20
358.8411560462
 30
0.0
 11
173.5169111351
 21
356.2274935523
 31
0.0
  0
LINE
  5
639
330
1F
100
AcDbEntity
  8
0
  6
Continuous
 62
     7
370
    15
100
AcDbLine
 10
178.7193185486
 20
357.8538880291
 30
0.0
 11
176.7286754532
 21
358.8411560462
 31
0.0
  0
LINE
  5
63A
330
1F
100
AcDbEntity
  8
0
  6
Continuous
 62
     7
370
    15
100
AcDbLine
 10
178.7193185486
 20
357.8538880291
 30
0.0
 11
178.5822769116
 21
353.7153035782
 31
0.0
  0
LINE
  5
63B
330
1F
100
AcDbEntity
  8
0
  6
Continuous
 62
     7
370
    15
100
AcDbLine
 10
183.1784423346
 20
355.5919828453
 30
0.0
 11
179.9200140475
 21
353.0367320231
 31
0.0
  0
LINE
  5
63C
330
1F
100
AcDbEntity
  8
0
  6
Continuous
 62
     7
370
    15
100
AcDbLine
 10
185.1509366921
 20
354.5689363749
 30
0.0
 11
183.1784423346
 21
355.5919828453
 31
0.0
  0
LINE
  5
63D
330
1F
100
AcDbEntity
  8
0
  6
Continuous
 62
     7
370
    15
100
AcDbLine
 10
185.1509366921
 20
354.5689363749
 30
0.0
 11
184.9391987702
 21
350.4335006398
 31
0.0
  0
LINE
  5
63E
330
1F
100
AcDbEntity
  8
0
  6
Continuous
 62
     7
370
    15
100
AcDbLine
 10
189.5684969144
 20
352.2268941714
 30
0.0
 11
186.2644668368
 21
349.7308879787
 31
0.0
  0
LINE
  5
63F
330
1F
100
AcDbEntity
  8
0
  6
Continuous
 62
     7
370
    15
100
AcDbLine
 10
191.5221995424
 20
351.1684027392
 30
0.0
 11
189.5684969144
 21
352.2268941714
 31
0.0
  0
LINE
  5
640
330
1F
100
AcDbEntity
  8
0
  6
Continuous
 62
     7
370
    15
100
AcDbLine
 10
191.5221995424
 20
351.1684027392
 30
0.0
 11
191.2358343575
 21
347.0374637845
 31
0.0
  0
LINE
  5
641
330
1F
100
AcDbEntity
  8
0
  6
Continuous
 62
     7
370
    15
100
AcDbLine
 10
195.8967561695
 20
348.7469869723
 30
0.0
 11
192.5482013457
 21
346.3110390544
 31
0.0
  0
LINE
  5
642
330
1F
100
AcDbEntity
  8
0
  6
Continuous
 62
     7
370
    15
100
AcDbLine
 10
197.8310302024
 20
347.6533956242
 30
0.0
 11
195.8967561695
 21
348.7469869723
 31
0.0
  0
LINE
  5
643
330
1F
100
AcDbEntity
  8
0
  6
Continuous
 62
     7
370
    15
100
AcDbLine
 10
197.8310302024
 20
347.6533956242
 30
0.0
 11
197.4701311036
 21
343.5283000487
 31
0.0
  0
LINE
  5
644
330
1F
100
AcDbEntity
  8
0
  6
Continuous
 62
     7
370
    15
100
AcDbLine
 10
202.1611572213
 20
345.1533956242
 30
0.0
 11
198.7691692092
 21
342.7783000487
 31
0.0
  0
LINE
  5
645
330
1F
100
AcDbEntity
  8
0
  6
Continuous
 62
     7
370
    15
100
AcDbLine
 10
204.0753721265
 20
344.0250608479
 30
0.0
 11
202.1611572213
 21
345.1533956242
 31
0.0
  0
LINE
  5
646
330
1F
100
AcDbEntity
  8
0
  6
Continuous
 62
     7
370
    15
100
AcDbLine
 10
204.0753721265
 20
344.0250608479
 30
0.0
 11
203.6400567593
 21
339.9071533455
 31
0.0
  0
LINE
  5
647
330
1F
100
AcDbEntity
  8
0
  6
Continuous
 62
     7
370
    15
100
AcDbLine
 10
208.3596580074
 20
341.447291562
 30
0.0
 11
204.9253425235
 21
339.1338225598
 31
0.0
  0
LINE
  5
648
330
1F
100
AcDbEntity
  8
0
  6
Continuous
 62
     7
370
    15
100
AcDbLine
 10
210.2531897914
 20
340.2845811708
 30
0.0
 11
208.3596580074
 21
341.447291562
 31
0.0
  0
LINE
  5
649
330
1F
100
AcDbEntity
  8
0
  6
Continuous
 62
     7
370
    15
100
AcDbLine
 10
210.2531897914
 20
340.2845811708
 30
0.0
 11
209.7436000592
 21
336.1752040924
 31
0.0
  0
LINE
  5
64A
330
1F
100
AcDbEntity
  8
0
  6
Continuous
 62
     7
370
    15
100
AcDbLine
 10
214.4902379474
 20
337.6298828973
 30
0.0
 11
211.0147145061
 21
335.3787946104
 31
0.0
  0
LINE
  5
64B
330
1F
100
AcDbEntity
  8
0
  6
Continuous
 62
     7
370
    15
100
AcDbLine
 10
216.3624693588
 20
336.4331759101
 30
0.0
 11
214.4902379474
 21
337.6298828973
 31
0.0
  0
LINE
  5
64C
330
1F
100
AcDbEntity
  8
0
  6
Continuous
 62
     7
370
    15
100
AcDbLine
 10
216.3624693588
 20
336.4331759101
 30
0.0
 11
215.7787713773
 21
332.3336688259
 31
0.0
  0
LINE
  5
64D
330
1F
100
AcDbEntity
  8
0
  6
Continuous
 62
     7
370
    15
100
AcDbLine
 10
220.5508986019
 20
333.7024140246
 30
0.0
 11
217.0353001503
 21
331.5144402603
 31
0.0
  0
LINE
  5
64E
330
1F
100
AcDbEntity
  8
0
  6
Continuous
 62
     7
370
    15
100
AcDbLine
 10
222.4012193328
 20
332.4721005427
 30
0.0
 11
220.5508986019
 21
333.7024140246
 31
0.0
  0
LINE
  5
64F
330
1F
100
AcDbEntity
  8
0
  6
Continuous
 62
     7
370
    15
100
AcDbLine
 10
222.4012193328
 20
332.4721005427
 30
0.0
 11
221.7436033752
 21
328.3837998053
 31
0.0
  0
LINE
  5
650
330
1F
100
AcDbEntity
  8
0
  6
Continuous
 62
     7
370
    15
100
AcDbLine
 10
226.5396643236
 20
329.6661652159
 30
0.0
 11
222.9851368724
 21
327.5420192073
 31
0.0
  0
LINE
  5
651
330
1F
100
AcDbEntity
  8
0
  6
Continuous
 62
     7
370
    15
100
AcDbLine
 10
228.3674712085
 20
328.4026462954
 30
0.0
 11
226.5396643236
 21
329.6661652159
 31
0.0
  0
LINE
  5
652
330
1F
100
AcDbEntity
  8
0
  6
Continuous
 62
     7
370
    15
100
AcDbLine
 10
228.3674712085
 20
328.4026462954
 30
0.0
 11
227.6361516436
 21
324.3268846045
 31
0.0
  0
LINE
  5
653
330
1F
100
AcDbEntity
  8
0
  6
Continuous
 62
     7
370
    15
100
AcDbLine
 10
232.4545829013
 20
325.5224522029
 30
0.0
 11
228.8622851515
 21
323.4628263768
 31
0.0
  0
LINE
  5
654
330
1F
100
AcDbEntity
  8
0
  6
Continuous
 62
     7
370
    15
100
AcDbLine
 10
234.2592801138
 20
324.2261397244
 30
0.0
 11
232.4545829013
 21
325.5224522029
 31
0.0
  0
LINE
  5
655
330
1F
100
AcDbEntity
  8
0
  6
Continuous
 62
     7
370
    15
100
AcDbLine
 10
234.2592801138
 20
324.2261397244
 30
0.0
 11
233.4544953364
 21
320.1642456921
 31
0.0
  0
LINE
  5
656
330
1F
100
AcDbEntity
  8
0
  6
Continuous
 62
     7
370
    15
100
AcDbLine
 10
238.2937261965
 20
321.2726257486
 30
0.0
 11
234.6648291612
 21
319.2781914994
 31
0.0
  0
LINE
  5
657
330
1F
100
AcDbEntity
  8
0
  6
Continuous
 62
     7
370
    15
100
AcDbLine
 10
240.0747254435
 20
319.9439422824
 30
0.0
 11
238.2937261965
 21
321.2726257486
 31
0.0
  0
LINE
  5
658
330
1F
100
AcDbEntity
  8
0
  6
Continuous
 62
     7
370
    15
100
AcDbLine
 10
240.0747254435
 20
319.9439422824
 30
0.0
 11
239.1967377965
 21
315.8972400005
 31
0.0
  0
LINE
  5
659
330
1F
100
AcDbEntity
  8
0
  6
Continuous
 62
     7
370
    15
100
AcDbLine
 10
244.055190772
 20
316.9180712065
 30
0.0
 11
240.390877395
 21
314.9894786777
 31
0.0
  0
LINE
  5
65A
330
1F
100
AcDbEntity
  8
0
  6
Continuous
 62
     7
370
    15
100
AcDbLine
 10
245.8119114853
 20
315.5574498755
 30
0.0
 11
244.055190772
 21
316.9180712065
 31
0.0
  0
LINE
  5
65B
330
1F
100
AcDbEntity
  8
0
  6
Continuous
 62
     7
370
    15
100
AcDbLine
 10
245.8119114853
 20
315.5574498755
 30
0.0
 11
244.861007174
 21
311.5272584833
 31
0.0
  0
LINE
  5
65C
330
1F
100
AcDbEntity
  8
0
  6
Continuous
 62
     7
370
    15
100
AcDbLine
 10
249.7370985121
 20
312.4602080694
 30
0.0
 11
246.038563282
 21
310.5980859415
 31
0.0
  0
LINE
  5
65D
330
1F
100
AcDbEntity
  8
0
  6
Continuous
 62
     7
370
    15
100
AcDbLine
 10
251.4689680379
 20
311.0680924074
 30
0.0
 11
249.7370985121
 21
312.4602080694
 31
0.0
  0
LINE
  5
65E
330
1F
100
AcDbEntity
  8
0
  6
Continuous
 62
     7
370
    15
100
AcDbLine
 10
251.4689680379
 20
311.0680924074
 30
0.0
 11
250.445457037
 21
307.0557256622
 31
0.0
  0
LINE
  5
65F
330
1F
100
AcDbEntity
  8
0
  6
Continuous
 62
     7
370
    15
100
AcDbLine
 10
255.3375972347
 20
307.9004895066
 30
0.0
 11
251.6060457961
 21
306.1054447919
 31
0.0
  0
LINE
  5
660
330
1F
100
AcDbEntity
  8
0
  6
Continuous
 62
     7
370
    15
100
AcDbLine
 10
257.0440510202
 20
306.4773333138
 30
0.0
 11
255.3375972347
 21
307.9004895066
 31
0.0
  0
LINE
  5
661
330
1F
100
AcDbEntity
  8
0
  6
Continuous
 62
     7
370
    15
100
AcDbLine
 10
257.0440510202
 20
306.4773333138
 30
0.0
 11
255.9482669727
 21
302.4840991623
 31
0.0
  0
LINE
  5
662
330
1F
100
AcDbEntity
  8
0
  6
Continuous
 62
     7
370
    15
100
AcDbLine
 10
260.8548612958
 20
303.2404018899
 30
0.0
 11
257.0915100554
 21
301.5130197352
 31
0.0
  0
LINE
  5
663
330
1F
100
AcDbEntity
  8
0
  6
Continuous
 62
     7
370
    15
100
AcDbLine
 10
262.535343073
 20
301.7866690852
 30
0.0
 11
260.8548612958
 21
303.2404018899
 31
0.0
  0
LINE
  5
664
330
1F
100
AcDbEntity
  8
0
  6
Continuous
 62
     7
370
    15
100
AcDbLine
 10
262.535343073
 20
301.7866690852
 30
0.0
 11
261.3676431814
 21
297.8138692375
 31
0.0
  0
LINE
  5
665
330
1F
100
AcDbEntity
  8
0
  6
Continuous
 62
     7
370
    15
100
AcDbLine
 10
266.2870921838
 20
298.4814643094
 30
0.0
 11
262.4931679146
 21
296.8223078047
 31
0.0
  0
LINE
  5
666
330
1F
100
AcDbEntity
  8
0
  6
Continuous
 62
     7
370
    15
100
AcDbLine
 10
267.9410541512
 20
296.997628779
 30
0.0
 11
266.2870921838
 21
298.4814643094
 31
0.0
  0
LINE
  5
667
330
1F
100
AcDbEntity
  8
0
  6
Continuous
 62
     7
370
    15
100
AcDbLine
 10
267.9410541512
 20
296.997628779
 30
0.0
 11
266.7018190609
 21
293.0465582838
 31
0.0
  0
LINE
  5
668
330
1F
100
AcDbEntity
  8
0
  6
Continuous
 62
     7
370
    15
100
AcDbLine
 10
271.6325191061
 20
293.6252280783
 30
0.0
 11
267.8092585474
 21
292.0348380736
 31
0.0
  0
LINE
  5
669
330
1F
100
AcDbEntity
  8
0
  6
Continuous
 62
     7
370
    15
100
AcDbLine
 10
273.2594221071
 20
292.1117735212
 30
0.0
 11
271.6325191061
 21
293.6252280783
 31
0.0
  0
LINE
  5
66A
330
1F
100
AcDbEntity
  8
0
  6
Continuous
 62
     7
370
    15
100
AcDbLine
 10
273.2594221071
 20
292.1117735212
 30
0.0
 11
271.9490557826
 21
288.183720344
 31
0.0
  0
LINE
  5
66B
330
1F
100
AcDbEntity
  8
0
  6
Continuous
 62
     7
370
    15
100
AcDbLine
 10
276.8893995667
 20
288.6732762269
 30
0.0
 11
273.0380490205
 21
287.1521711557
 31
0.0
  0
LINE
  5
66C
330
1F
100
AcDbEntity
  8
0
  6
Continuous
 62
     7
370
    15
100
AcDbLine
 10
278.4887132652
 20
287.1306959973
 30
0.0
 11
276.8893995667
 21
288.6732762269
 31
0.0
  0
LINE
  5
66D
330
1F
100
AcDbEntity
  8
0
  6
Continuous
 62
     7
370
    15
100
AcDbLine
 10
278.4887132652
 20
287.1306959973
 30
0.0
 11
277.1076428583
 21
283.2269406005
 31
0.0
  0
LINE
  5
66E
330
1F
100
AcDbEntity
  8
0
  6
Continuous
 62
     7
370
    15
100
AcDbLine
 10
282.0560199334
 20
283.627222987
 30
0.0
 11
278.1778348588
 21
282.1758986974
 31
0.0
  0
LINE
  5
66F
330
1F
100
AcDbEntity
  8
0
  6
Continuous
 62
     7
370
    15
100
AcDbLine
 10
283.627222987
 20
282.0560199334
 30
0.0
 11
282.0560199334
 21
283.627222987
 31
0.0
  0
LINE
  5
670
330
1F
100
AcDbEntity
  8
0
  6
Continuous
 62
     7
370
    15
100
AcDbLine
 10
283.627222987
 20
282.0560199334
 30
0.0
 11
282.1758986974
 21
278.1778348587
 31
0.0
  0
LINE
  5
671
330
1F
100
AcDbEntity
  8
0
  6
Continuous
 62
     7
370
    15
100
AcDbLine
 10
287.1306959973
 20
278.4887132652
 30
0.0
 11
283.2269406005
 21
277.1076428583
 31
0.0
  0
LINE
  5
672
330
1F
100
AcDbEntity
  8
0
  6
Continuous
 62
     7
370
    15
100
AcDbLine
 10
288.6732762269
 20
276.8893995667
 30
0.0
 11
287.1306959973
 21
278.4887132652
 31
0.0
  0
LINE
  5
673
330
1F
100
AcDbEntity
  8
0
  6
Continuous
 62
     7
370
    15
100
AcDbLine
 10
288.6732762269
 20
276.8893995667
 30
0.0
 11
287.1521711557
 21
273.0380490205
 31
0.0
  0
LINE
  5
674
330
1F
100
AcDbEntity
  8
0
  6
Continuous
 62
     7
370
    15
100
AcDbLine
 10
292.1117735212
 20
273.2594221071
 30
0.0
 11
288.183720344
 21
271.9490557826
 31
0.0
  0
LINE
  5
675
330
1F
100
AcDbEntity
  8
0
  6
Continuous
 62
     7
370
    15
100
AcDbLine
 10
293.6252280783
 20
271.6325191061
 30
0.0
 11
292.1117735212
 21
273.2594221071
 31
0.0
  0
LINE
  5
676
330
1F
100
AcDbEntity
  8
0
  6
Continuous
 62
     7
370
    15
100
AcDbLine
 10
293.6252280783
 20
271.6325191061
 30
0.0
 11
292.0348380736
 21
267.8092585474
 31
0.0
  0
LINE
  5
677
330
1F
100
AcDbEntity
  8
0
  6
Continuous
 62
     7
370
    15
100
AcDbLine
 10
296.997628779
 20
267.9410541512
 30
0.0
 11
293.0465582838
 21
266.7018190609
 31
0.0
  0
LINE
  5
678
330
1F
100
AcDbEntity
  8
0
  6
Continuous
 62
     7
370
    15
100
AcDbLine
 10
298.4814643094
 20
266.2870921838
 30
0.0
 11
296.997628779
 21
267.9410541512
 31
0.0
  0
LINE
  5
679
330
1F
100
AcDbEntity
  8
0
  6
Continuous
 62
     7
370
    15
100
AcDbLine
 10
298.4814643094
 20
266.2870921838
 30
0.0
 11
296.8223078047
 21
262.4931679146
 31
0.0
  0
LINE
  5
67A
330
1F
100
AcDbEntity
  8
0
  6
Continuous
 62
     7
370
    15
100
AcDbLine
 10
301.7866690852
 20
262.535343073
 30
0.0
 11
297.8138692375
 21
261.3676431814
 31
0.0
  0
LINE
  5
67B
330
1F
100
AcDbEntity
  8
0
  6
Continuous
 62
     7
370
    15
100
AcDbLine
 10
303.2404018899
 20
260.8548612958
 30
0.0
 11
301.7866690852
 21
262.535343073
 31
0.0
  0
LINE
  5
67C
330
1F
100
AcDbEntity
  8
0
  6
Continuous
 62
     7
370
    15
100
AcDbLine
 10
303.2404018899
 20
260.8548612958
 30
0.0
 11
301.5130197352
 21
257.0915100554
 31
0.0
  0
LINE
  5
67D
330
1F
100
AcDbEntity
  8
0
  6
Continuous
 62
     7
370
    15
100
AcDbLine
 10
306.4773333138
 20
257.0440510202
 30
0.0
 11
302.4840991623
 21
255.9482669727
 31
0.0
  0
LINE
  5
67E
330
1F
100
AcDbEntity
  8
0
  6
Continuous
 62
     7
370
    15
100
AcDbLine
 10
307.9004895066
 20
255.3375972347
 30
0.0
 11
306.4773333138
 21
257.0440510202
 31
0.0
  0
LINE
  5
67F
330
1F
100
AcDbEntity
  8
0
  6
Continuous
 62
     7
370
    15
100
AcDbLine
 10
307.9004895066
 20
255.3375972347
 30
0.0
 11
306.1054447919
 21
251.6060457961
 31
0.0
  0
LINE
  5
680
330
1F
100
AcDbEntity
  8
0
  6
Continuous
 62
     7
370
    15
100
AcDbLine
 10
311.0680924074
 20
251.4689680379
 30
0.0
 11
307.0557256622
 21
250.445457037
 31
0.0
  0
LINE
  5
681
330
1F
100
AcDbEntity
  8
0
  6
Continuous
 62
     7
370
    15
100
AcDbLine
 10
312.4602080694
 20
249.7370985121
 30
0.0
 11
311.0680924074
 21
251.4689680379
 31
0.0
  0
LINE
  5
682
330
1F
100
AcDbEntity
  8
0
  6
Continuous
 62
     7
370
    15
100
AcDbLine
 10
312.4602080694
 20
249.7370985121
 30
0.0
 11
310.5980859415
 21
246.038563282
 31
0.0
  0
LINE
  5
683
330
1F
100
AcDbEntity
  8
0
  6
Continuous
 62
     7
370
    15
100
AcDbLine
 10
315.5574498755
 20
245.8119114853
 30
0.0
 11
311.5272584833
 21
244.861007174
 31
0.0
  0
LINE
  5
684
330
1F
100
AcDbEntity
  8
0
  6
Continuous
 62
     7
370
    15
100
AcDbLine
 10
316.9180712065
 20
244.055190772
 30
0.0
 11
315.5574498755
 21
245.8119114853
 31
0.0
  0
LINE
  5
685
330
1F
100
AcDbEntity
  8
0
  6
Continuous
 62
     7
370
    15
100
AcDbLine
 10
316.9180712065
 20
244.055190772
 30
0.0
 11
314.9894786777
 21
240.390877395
 31
0.0
  0
LINE
  5
686
330
1F
100
AcDbEntity
  8
0
  6
Continuous
 62
     7
370
    15
100
AcDbLine
 10
319.9439422824
 20
240.0747254435
 30
0.0
 11
315.8972400005
 21
239.1967377965
 31
0.0
  0
LINE
  5
687
330
1F
100
AcDbEntity
  8
0
  6
Continuous
 62
     7
370
    15
100
AcDbLine
 10
321.2726257486
 20
238.2937261965
 30
0.0
 11
319.9439422824
 21
240.0747254435
 31
0.0
  0
LINE
  5
688
330
1F
100
AcDbEntity
  8
0
  6
Continuous
 62
     7
370
    15
100
AcDbLine
 10
321.2726257486
 20
238.2937261965
 30
0.0
 11
319.2781914994
 21
234.6648291612
 31
0.0
  0
LINE
  5
689
330
1F
100
AcDbEntity
  8
0
  6
Continuous
 62
     7
370
    15
100
AcDbLine
 10
324.2261397244
 20
234.2592801138
 30
0.0
 11
320.1642456921
 21
233.4544953364
 31
0.0
  0
LINE
  5
68A
330
1F
100
AcDbEntity
  8
0
  6
Continuous
 62
     7
370
    15
100
AcDbLine
 10
325.5224522029
 20
232.4545829013
 30
0.0
 11
324.2261397244
 21
234.2592801138
 31
0.0
  0
LINE
  5
68B
330
1F
100
AcDbEntity
  8
0
  6
Continuous
 62
     7
370
    15
100
AcDbLine
 10
325.5224522029
 20
232.4545829013
 30
0.0
 11
323.4628263768
 21
228.8622851515
 31
0.0
  0
LINE
  5
68C
330
1F
100
AcDbEntity
  8
0
  6
Continuous
 62
     7
370
    15
100
AcDbLine
 10
328.4026462954
 20
228.3674712085
 30
0.0
 11
324.3268846045
 21
227.6361516436
 31
0.0
  0
LINE
  5
68D
330
1F
100
AcDbEntity
  8
0
  6
Continuous
 62
     7
370
    15
100
AcDbLine
 10
329.6661652159
 20
226.5396643236
 30
0.0
 11
328.4026462954
 21
228.3674712085
 31
0.0
  0
LINE
  5
68E
330
1F
100
AcDbEntity
  8
0
  6
Continuous
 62
     7
370
    15
100
AcDbLine
 10
329.6661652159
 20
226.5396643236
 30
0.0
 11
327.5420192073
 21
222.9851368724
 31
0.0
  0
LINE
  5
68F
330
1F
100
AcDbEntity
  8
0
  6
Continuous
 62
     7
370
    15
100
AcDbLine
 10
332.4721005427
 20
222.4012193328
 30
0.0
 11
328.3837998053
 21
221.7436033752
 31
0.0
  0
LINE
  5
690
330
1F
100
AcDbEntity
  8
0
  6
Continuous
 62
     7
370
    15
100
AcDbLine
 10
333.7024140246
 20
220.5508986019
 30
0.0
 11
332.4721005427
 21
222.4012193328
 31
0.0
  0
LINE
  5
691
330
1F
100
AcDbEntity
  8
0
  6
Continuous
 62
     7
370
    15
100
AcDbLine
 10
333.7024140246
 20
220.5508986019
 30
0.0
 11
331.5144402603
 21
217.0353001503
 31
0.0
  0
LINE
  5
692
330
1F
100
AcDbEntity
  8
0
  6
Continuous
 62
     7
370
    15
100
AcDbLine
 10
336.4331759101
 20
216.3624693588
 30
0.0
 11
332.3336688259
 21
215.7787713773
 31
0.0
  0
LINE
  5
693
330
1F
100
AcDbEntity
  8
0
  6
Continuous
 62
     7
370
    15
100
AcDbLine
 10
337.6298828973
 20
214.4902379474
 30
0.0
 11
336.4331759101
 21
216.3624693588
 31
0.0
  0
LINE
  5
694
330
1F
100
AcDbEntity
  8
0
  6
Continuous
 62
     7
370
    15
100
AcDbLine
 10
337.6298828973
 20
214.4902379474
 30
0.0
 11
335.3787946104
 21
211.0147145061
 31
0.0
  0
LINE
  5
695
330
1F
100
AcDbEntity
  8
0
  6
Continuous
 62
     7
370
    15
100
AcDbLine
 10
340.2845811708
 20
210.2531897914
 30
0.0
 11
336.1752040924
 21
209.7436000592
 31
0.0
  0
LINE
  5
696
330
1F
100
AcDbEntity
  8
0
  6
Continuous
 62
     7
370
    15
100
AcDbLine
 10
341.447291562
 20
208.3596580074
 30
0.0
 11
340.2845811708
 21
210.2531897914
 31
0.0
  0
LINE
  5
697
330
1F
100
AcDbEntity
  8
0
  6
Continuous
 62
     7
370
    15
100
AcDbLine
 10
341.447291562
 20
208.3596580074
 30
0.0
 11
339.1338225598
 21
204.9253425235
 31
0.0
  0
LINE
  5
698
330
1F
100
AcDbEntity
  8
0
  6
Continuous
 62
     7
370
    15
100
AcDbLine
 10
344.0250608479
 20
204.0753721265
 30
0.0
 11
339.9071533455
 21
203.6400567593
 31
0.0
  0
LINE
  5
699
330
1F
100
AcDbEntity
  8
0
  6
Continuous
 62
     7
370
    15
100
AcDbLine
 10
345.1533956242
 20
202.1611572213
 30
0.0
 11
344.0250608479
 21
204.0753721265
 31
0.0
  0
LINE
  5
69A
330
1F
100
AcDbEntity
  8
0
  6
Continuous
 62
     7
370
    15
100
AcDbLine
 10
345.1533956242
 20
202.1611572213
 30
0.0
 11
342.7783000487
 21
198.7691692092
 31
0.0
  0
LINE
  5
69B
330
1F
100
AcDbEntity
  8
0
  6
Continuous
 62
     7
370
    15
100
AcDbLine
 10
347.6533956242
 20
197.8310302024
 30
0.0
 11
343.5283000487
 21
197.4701311036
 31
0.0
  0
LINE
  5
69C
330
1F
100
AcDbEntity
  8
0
  6
Continuous
 62
     7
370
    15
100
AcDbLine
 10
348.7469869723
 20
195.8967561695
 30
0.0
 11
347.6533956242
 21
197.8310302024
 31
0.0
  0
LINE
  5
69D
330
1F
100
AcDbEntity
  8
0
  6
Continuous
 62
     7
370
    15
100
AcDbLine
 10
348.7469869723
 20
195.8967561695
 30
0.0
 11
346.3110390544
 21
192.5482013457
 31
0.0
  0
LINE
  5
69E
330
1F
100
AcDbEntity
  8
0
  6
Continuous
 62
     7
370
    15
100
AcDbLine
 10
351.1684027392
 20
191.5221995424
 30
0.0
 11
347.0374637845
 21
191.2358343575
 31
0.0
  0
LINE
  5
69F
330
1F
100
AcDbEntity
  8
0
  6
Continuous
 62
     7
370
    15
100
AcDbLine
 10
352.2268941714
 20
189.5684969143
 30
0.0
 11
351.1684027392
 21
191.5221995424
 31
0.0
  0
LINE
  5
6A0
330
1F
100
AcDbEntity
  8
0
  6
Continuous
 62
     7
370
    15
100
AcDbLine
 10
352.2268941714
 20
189.5684969143
 30
0.0
 11
349.7308879787
 21
186.2644668368
 31
0.0
  0
LINE
  5
6A1
330
1F
100
AcDbEntity
  8
0
  6
Continuous
 62
     7
370
    15
100
AcDbLine
 10
354.5689363749
 20
185.1509366921
 30
0.0
 11
350.4335006398
 21
184.9391987702
 31
0.0
  0
LINE
  5
6A2
330
1F
100
AcDbEntity
  8
0
  6
Continuous
 62
     7
370
    15
100
AcDbLine
 10
355.5919828453
 20
183.1784423346
 30
0.0
 11
354.5689363749
 21
185.1509366921
 31
0.0
  0
LINE
  5
6A3
330
1F
100
AcDbEntity
  8
0
  6
Continuous
 62
     7
370
    15
100
AcDbLine
 10
355.5919828453
 20
183.1784423346
 30
0.0
 11
353.0367320231
 21
179.9200140475
 31
0.0
  0
LINE
  5
6A4
330
1F
100
AcDbEntity
  8
0
  6
Continuous
 62
     7
370
    15
100
AcDbLine
 10
357.8538880291
 20
178.7193185486
 30
0.0
 11
353.7153035782
 21
178.5822769116
 31
0.0
  0
LINE
  5
6A5
330
1F
100
AcDbEntity
  8
0
  6
Continuous
 62
     7
370
    15
100
AcDbLine
 10
358.8411560462
 20
176.7286754532
 30
0.0
 11
357.8538880291
 21
178.7193185486
 31
0.0
  0
LINE
  5
6A6
330
1F
100
AcDbEntity
  8
0
  6
Continuous
 62
     7
370
    15
100
AcDbLine
 10
358.8411560462
 20
176.7286754532
 30
0.0
 11
356.2274935523
 21
173.5169111351
 31
0.0
  0
LINE
  5
6A7
330
1F
100
AcDbEntity
  8
0
  6
Continuous
 62
     7
370
    15
100
AcDbLine
 10
361.022186877
 20
172.2294416834
 30
0.0
 11
356.8818028015
 21
172.1671410041
 31
0.0
  0
LINE
  5
6A8
330
1F
100
AcDbEntity
  8
0
  6
Continuous
 62
     7
370
    15
100
AcDbLine
 10
361.9733546123
 20
170.2212987576
 30
0.0
 11
361.022186877
 21
172.2294416834
 31
0.0
  0
LINE
  5
6A9
330
1F
100
AcDbEntity
  8
0
  6
Continuous
 62
     7
370
    15
100
AcDbLine
 10
361.9733546123
 20
170.2212987576
 30
0.0
 11
359.3021324454
 21
167.057245376
 31
0.0
  0
LINE
  5
6AA
330
1F
100
AcDbEntity
  8
0
  6
Continuous
 62
     7
370
    15
100
AcDbLine
 10
364.0728001201
 20
165.6834216593
 30
0.0
 11
359.9319660977
 21
165.6958822465
 31
0.0
  0
LINE
  5
6AB
330
1F
100
AcDbEntity
  8
0
  6
Continuous
 62
     7
370
    15
100
AcDbLine
 10
364.987557513
 20
163.6584335154
 30
0.0
 11
364.0728001201
 21
165.6834216593
 31
0.0
  0
LINE
  5
6AC
330
1F
100
AcDbEntity
  8
0
  6
Continuous
 62
     7
370
    15
100
AcDbLine
 10
364.987557513
 20
163.6584335154
 30
0.0
 11
362.2596464351
 21
160.5431224847
 31
0.0
  0
LINE
  5
6AD
330
1F
100
AcDbEntity
  8
0
  6
Continuous
 62
     7
370
    15
100
AcDbLine
 10
367.0047333229
 20
159.0833923405
 30
0.0
 11
362.8647991781
 21
159.1706101322
 31
0.0
  0
LINE
  5
6AE
330
1F
100
AcDbEntity
  8
0
  6
Continuous
 62
     7
370
    15
100
AcDbLine
 10
367.8827821819
 20
157.0422190818
 30
0.0
 11
367.0047333229
 21
159.0833923405
 31
0.0
  0
LINE
  5
6AF
330
1F
100
AcDbEntity
  8
0
  6
Continuous
 62
     7
370
    15
100
AcDbLine
 10
367.8827821819
 20
157.0422190818
 30
0.0
 11
365.0990714343
 21
153.9766659276
 31
0.0
  0
LINE
  5
6B0
330
1F
100
AcDbEntity
  8
0
  6
Continuous
 62
     7
370
    15
100
AcDbLine
 10
369.8170307373
 20
152.4315051971
 30
0.0
 11
365.679346001
 21
152.5934517622
 31
0.0
  0
LINE
  5
6B1
330
1F
100
AcDbEntity
  8
0
  6
Continuous
 62
     7
370
    15
100
AcDbLine
 10
370.6580848369
 20
150.3748122029
 30
0.0
 11
369.8170307373
 21
152.4315051971
 31
0.0
  0
LINE
  5
6B2
330
1F
100
AcDbEntity
  8
0
  6
Continuous
 62
     7
370
    15
100
AcDbLine
 10
370.6580848369
 20
150.3748122029
 30
0.0
 11
367.8194818506
 21
147.3600162308
 31
0.0
  0
LINE
  5
6B3
330
1F
100
AcDbEntity
  8
0
  6
Continuous
 62
     7
370
    15
100
AcDbLine
 10
372.5087756136
 20
145.7299286038
 30
0.0
 11
368.3746890836
 21
145.9665511511
 31
0.0
  0
LINE
  5
6B4
330
1F
100
AcDbEntity
  8
0
  6
Continuous
 62
     7
370
    15
100
AcDbLine
 10
373.3125607879
 20
143.6583863126
 30
0.0
 11
372.5087756136
 21
145.7299286038
 31
0.0
  0
LINE
  5
6B5
330
1F
100
AcDbEntity
  8
0
  6
Continuous
 62
     7
370
    15
100
AcDbLine
 10
373.3125607879
 20
143.6583863126
 30
0.0
 11
370.4199908875
 21
140.6953302824
 31
0.0
  0
LINE
  5
6B6
330
1F
100
AcDbEntity
  8
0
  6
Continuous
 62
     7
370
    15
100
AcDbLine
 10
375.0790904999
 20
138.980847133
 30
0.0
 11
370.9499498011
 21
139.2920685285
 31
0.0
  0
LINE
  5
6B7
330
1F
100
AcDbEntity
  8
0
  6
Continuous
 62
     7
370
    15
100
AcDbLine
 10
375.845344732
 20
136.8951308238
 30
0.0
 11
375.0790904999
 21
138.980847133
 31
0.0
  0
LINE
  5
6B8
330
1F
100
AcDbEntity
  8
0
  6
Continuous
 62
     7
370
    15
100
AcDbLine
 10
375.845344732
 20
136.8951308238
 30
0.0
 11
372.8997508341
 21
133.9847806291
 31
0.0
  0
LINE
  5
6B9
330
1F
100
AcDbEntity
  8
0
  6
Continuous
 62
     7
370
    15
100
AcDbLine
 10
377.5271375278
 20
132.1864608425
 30
0.0
 11
373.4042886729
 21
132.5721796347
 31
0.0
  0
LINE
  5
6BA
330
1F
100
AcDbEntity
  8
0
  6
Continuous
 62
     7
370
    15
100
AcDbLine
 10
378.2556110351
 20
130.0872504148
 30
0.0
 11
377.5271375278
 21
132.1864608425
 31
0.0
  0
LINE
  5
6BB
330
1F
100
AcDbEntity
  8
0
  6
Continuous
 62
     7
370
    15
100
AcDbLine
 10
378.2556110351
 20
130.0872504148
 30
0.0
 11
375.2579533411
 21
127.2305547683
 31
0.0
  0
LINE
  5
6BC
330
1F
100
AcDbEntity
  8
0
  6
Continuous
 62
     7
370
    15
100
AcDbLine
 10
379.8521186858
 20
125.3489845589
 30
0.0
 11
375.7369056363
 21
125.8090750115
 31
0.0
  0
LINE
  5
6BD
330
1F
100
AcDbEntity
  8
0
  6
Continuous
 62
     7
370
    15
100
AcDbLine
 10
380.5425740012
 20
123.2369643108
 30
0.0
 11
379.8521186858
 21
125.3489845589
 31
0.0
  0
LINE
  5
6BE
330
1F
100
AcDbEntity
  8
0
  6
Continuous
 62
     7
370
    15
100
AcDbLine
 10
380.5425740012
 20
123.2369643108
 30
0.0
 11
377.4938296842
 21
120.4348544349
 31
0.0
  0
LINE
  5
6BF
330
1F
100
AcDbEntity
  8
0
  6
Continuous
 62
     7
370
    15
100
AcDbLine
 10
382.053276079
 20
118.4706471548
 30
0.0
 11
377.9470403075
 21
119.0049592881
 31
0.0
  0
LINE
  5
6C0
330
1F
100
AcDbEntity
  8
0
  6
Continuous
 62
     7
370
    15
100
AcDbLine
 10
382.7054881288
 20
116.3465055604
 30
0.0
 11
382.053276079
 21
118.4706471548
 31
0.0
  0
LINE
  5
6C1
330
1F
100
AcDbEntity
  8
0
  6
Continuous
 62
     7
370
    15
100
AcDbLine
 10
382.7054881288
 20
116.3465055604
 30
0.0
 11
379.606651015
 21
113.5998948837
 31
0.0
  0
LINE
  5
6C2
330
1F
100
AcDbEntity
  8
0
  6
Continuous
 62
     7
370
    15
100
AcDbLine
 10
384.1298921768
 20
111.5536908229
 30
0.0
 11
380.0339722294
 21
112.1620504625
 31
0.0
  0
LINE
  5
6C3
330
1F
100
AcDbEntity
  8
0
  6
Continuous
 62
     7
370
    15
100
AcDbLine
 10
384.7436483535
 20
109.4181203074
 30
0.0
 11
384.1298921768
 21
111.5536908229
 31
0.0
  0
LINE
  5
6C4
330
1F
100
AcDbEntity
  8
0
  6
Continuous
 62
     7
370
    15
100
AcDbLine
 10
384.7436483535
 20
109.4181203074
 30
0.0
 11
381.5957285983
 21
106.7279041671
 31
0.0
  0
LINE
  5
6C5
330
1F
100
AcDbEntity
  8
0
  6
Continuous
 62
     7
370
    15
100
AcDbLine
 10
386.0812900462
 20
104.6003703448
 30
0.0
 11
381.9970211061
 21
105.2825791783
 31
0.0
  0
LINE
  5
6C6
330
1F
100
AcDbEntity
  8
0
  6
Continuous
 62
     7
370
    15
100
AcDbLine
 10
386.6563902783
 20
102.4540670592
 30
0.0
 11
386.0812900462
 21
104.6003703448
 31
0.0
  0
LINE
  5
6C7
330
1F
100
AcDbEntity
  8
0
  6
Continuous
 62
     7
370
    15
100
AcDbLine
 10
386.6563902783
 20
102.4540670592
 30
0.0
 11
383.460414037
 21
99.8211224087
 31
0.0
  0
LINE
  5
6C8
330
1F
100
AcDbEntity
  8
0
  6
Continuous
 62
     7
370
    15
100
AcDbLine
 10
387.9068335726
 20
97.6129523562
 30
0.0
 11
383.8355470253
 21
98.3687879978
 31
0.0
  0
LINE
  5
6C9
330
1F
100
AcDbEntity
  8
0
  6
Continuous
 62
     7
370
    15
100
AcDbLine
 10
388.4430903896
 20
95.4566159499
 30
0.0
 11
387.9068335726
 21
97.6129523562
 31
0.0
  0
LINE
  5
6CA
330
1F
100
AcDbEntity
  8
0
  6
Continuous
 62
     7
370
    15
100
AcDbLine
 10
388.4430903896
 20
95.4566159499
 30
0.0
 11
385.200099483
 21
92.8818010736
 31
0.0
  0
LINE
  5
6CB
330
1F
100
AcDbEntity
  8
0
  6
Continuous
 62
     7
370
    15
100
AcDbLine
 10
389.6059276674
 20
90.5937146076
 30
0.0
 11
385.5489506663
 21
91.4229306709
 31
0.0
  0
LINE
  5
6CC
330
1F
100
AcDbEntity
  8
0
  6
Continuous
 62
     7
370
    15
100
AcDbLine
 10
390.1031662609
 20
88.4280480007
 30
0.0
 11
389.6059276674
 21
90.5937146076
 31
0.0
  0
LINE
  5
6CD
330
1F
100
AcDbEntity
  8
0
  6
Continuous
 62
     7
370
    15
100
AcDbLine
 10
390.1031662609
 20
88.4280480007
 30
0.0
 11
386.8142178355
 21
85.9122022339
 31
0.0
  0
LINE
  5
6CE
330
1F
100
AcDbEntity
  8
0
  6
Continuous
 62
     7
370
    15
100
AcDbLine
 10
391.178018462
 20
83.5449452222
 30
0.0
 11
387.1366734958
 21
84.4472714004
 31
0.0
  0
LINE
  5
6CF
330
1F
100
AcDbEntity
  8
0
  6
Continuous
 62
     7
370
    15
100
AcDbLine
 10
391.6360767426
 20
81.3706543763
 30
0.0
 11
391.178018462
 21
83.5449452222
 31
0.0
  0
LINE
  5
6D0
330
1F
100
AcDbEntity
  8
0
  6
Continuous
 62
     7
370
    15
100
AcDbLine
 10
391.6360767426
 20
81.3706543763
 30
0.0
 11
388.3022429261
 21
78.9145978316
 31
0.0
  0
LINE
  5
6D1
330
1F
100
AcDbEntity
  8
0
  6
Continuous
 62
     7
370
    15
100
AcDbLine
 10
392.6225934878
 20
76.4689419499
 30
0.0
 11
388.5981979497
 21
77.4440841036
 31
0.0
  0
LINE
  5
6D2
330
1F
100
AcDbEntity
  8
0
  6
Continuous
 62
     7
370
    15
100
AcDbLine
 10
393.0413221384
 20
74.2867356379
 30
0.0
 11
392.6225934878
 21
76.4689419499
 31
0.0
  0
LINE
  5
6D3
330
1F
100
AcDbEntity
  8
0
  6
Continuous
 62
     7
370
    15
100
AcDbLine
 10
393.0413221384
 20
74.2867356379
 30
0.0
 11
389.6636896901
 21
71.8912689377
 31
0.0
  0
LINE
  5
6D4
330
1F
100
AcDbEntity
  8
0
  6
Continuous
 62
     7
370
    15
100
AcDbLine
 10
393.939181844
 20
69.3680114182
 30
0.0
 11
389.9330476018
 21
70.4156516718
 31
0.0
  0
LINE
  5
6D5
330
1F
100
AcDbEntity
  8
0
  6
Continuous
 62
     7
370
    15
100
AcDbLine
 10
394.3184443677
 20
67.1786009933
 30
0.0
 11
393.939181844
 21
69.3680114182
 31
0.0
  0
LINE
  5
6D6
330
1F
100
AcDbEntity
  8
0
  6
Continuous
 62
     7
370
    15
100
AcDbLine
 10
394.3184443677
 20
67.1786009933
 30
0.0
 11
390.8981143246
 21
64.8445050092
 31
0.0
  0
LINE
  5
6D7
330
1F
100
AcDbEntity
  8
0
  6
Continuous
 62
     7
370
    15
100
AcDbLine
 10
395.1273543505
 20
62.2444683806
 30
0.0
 11
391.1407873194
 21
63.3642652254
 31
0.0
  0
LINE
  5
6D8
330
1F
100
AcDbEntity
  8
0
  6
Continuous
 62
     7
370
    15
100
AcDbLine
 10
395.4670271159
 20
60.0485675442
 30
0.0
 11
395.1273543505
 21
62.2444683806
 31
0.0
  0
LINE
  5
6D9
330
1F
100
AcDbEntity
  8
0
  6
Continuous
 62
     7
370
    15
100
AcDbLine
 10
395.4670271159
 20
60.0485675442
 30
0.0
 11
392.0051144331
 21
57.7766031421
 31
0.0
  0
LINE
  5
6DA
330
1F
100
AcDbEntity
  8
0
  6
Continuous
 62
     7
370
    15
100
AcDbLine
 10
396.1867236883
 20
55.1006349614
 30
0.0
 11
392.2210234049
 21
56.2922233673
 31
0.0
  0
LINE
  5
6DB
330
1F
100
AcDbEntity
  8
0
  6
Continuous
 62
     7
370
    15
100
AcDbLine
 10
396.4866959692
 20
52.8989595308
 30
0.0
 11
396.1867236883
 21
55.1006349614
 31
0.0
  0
LINE
  5
6DC
330
1F
100
AcDbEntity
  8
0
  6
Continuous
 62
     7
370
    15
100
AcDbLine
 10
396.4866959692
 20
52.8989595308
 30
0.0
 11
392.9843291572
 21
50.6898673233
 31
0.0
  0
LINE
  5
6DD
330
1F
100
AcDbEntity
  8
0
  6
Continuous
 62
     7
370
    15
100
AcDbLine
 10
397.1169445253
 20
47.9388398994
 30
0.0
 11
393.173403724
 21
49.2018314339
 31
0.0
  0
LINE
  5
6DE
330
1F
100
AcDbEntity
  8
0
  6
Continuous
 62
     7
370
    15
100
AcDbLine
 10
397.377118537
 20
45.7321075744
 30
0.0
 11
397.1169445253
 21
47.9388398994
 31
0.0
  0
LINE
  5
6DF
330
1F
100
AcDbEntity
  8
0
  6
Continuous
 62
     7
370
    15
100
AcDbLine
 10
397.377118537
 20
45.7321075744
 30
0.0
 11
393.8354392934
 21
43.5866076787
 31
0.0
  0
LINE
  5
6E0
330
1F
100
AcDbEntity
  8
0
  6
Continuous
 62
     7
370
    15
100
AcDbLine
 10
397.9177136292
 20
40.7614177886
 30
0.0
 11
393.9976178211
 21
42.0954007429
 31
0.0
  0
LINE
  5
6E1
330
1F
100
AcDbEntity
  8
0
  6
Continuous
 62
     7
370
    15
100
AcDbLine
 10
398.1380045606
 20
38.5503479172
 30
0.0
 11
397.9177136292
 21
40.7614177886
 31
0.0
  0
LINE
  5
6E2
330
1F
100
AcDbEntity
  8
0
  6
Continuous
 62
     7
370
    15
100
AcDbLine
 10
398.1380045606
 20
38.5503479172
 30
0.0
 11
394.5581673979
 21
36.4691397209
 31
0.0
  0
LINE
  5
6E3
330
1F
100
AcDbEntity
  8
0
  6
Continuous
 62
     7
370
    15
100
AcDbLine
 10
398.5887699661
 20
33.5707083168
 30
0.0
 11
394.6933970196
 21
34.9752478408
 31
0.0
  0
LINE
  5
6E4
330
1F
100
AcDbEntity
  8
0
  6
Continuous
 62
     7
370
    15
100
AcDbLine
 10
398.769106007
 20
31.3560216611
 30
0.0
 11
398.5887699661
 21
33.5707083168
 31
0.0
  0
LINE
  5
6E5
330
1F
100
AcDbEntity
  8
0
  6
Continuous
 62
     7
370
    15
100
AcDbLine
 10
398.769106007
 20
31.3560216611
 30
0.0
 11
395.1522778766
 21
29.3397835942
 31
0.0
  0
LINE
  5
6E6
330
1F
100
AcDbEntity
  8
0
  6
Continuous
 62
     7
370
    15
100
AcDbLine
 10
399.129894786
 20
26.3690555035
 30
0.0
 11
395.2605145103
 21
27.8436937469
 31
0.0
  0
LINE
  5
6E7
330
1F
100
AcDbEntity
  8
0
  6
Continuous
 62
     7
370
    15
100
AcDbLine
 10
399.2702171505
 20
24.1514740044
 30
0.0
 11
399.129894786
 21
26.3690555035
 31
0.0
  0
LINE
  5
6E8
330
1F
100
AcDbEntity
  8
0
  6
Continuous
 62
     7
370
    15
100
AcDbLine
 10
399.2702171505
 20
24.1514740044
 30
0.0
 11
395.6175770619
 21
22.200863318
 31
0.0
  0
LINE
  5
6E9
330
1F
100
AcDbEntity
  8
0
  6
Continuous
 62
     7
370
    15
100
AcDbLine
 10
399.5409116934
 20
19.1588069352
 30
0.0
 11
395.6987854248
 21
20.7030631972
 31
0.0
  0
LINE
  5
6EA
330
1F
100
AcDbEntity
  8
0
  6
Continuous
 62
     7
370
    15
100
AcDbLine
 10
399.6411746396
 20
16.9390534776
 30
0.0
 11
399.5409116934
 21
19.1588069352
 31
0.0
  0
LINE
  5
6EB
330
1F
100
AcDbEntity
  8
0
  6
Continuous
 62
     7
370
    15
100
AcDbLine
 10
399.6411746396
 20
16.9390534776
 30
0.0
 11
395.9539132762
 21
15.0547060294
 31
0.0
  0
LINE
  5
6EC
330
1F
100
AcDbEntity
  8
0
  6
Continuous
 62
     7
370
    15
100
AcDbLine
 10
399.8216867057
 20
11.9423130006
 30
0.0
 11
396.0080668961
 21
13.5556838863
 31
0.0
  0
LINE
  5
6ED
330
1F
100
AcDbEntity
  8
0
  6
Continuous
 62
     7
370
    15
100
AcDbLine
 10
399.8818575498
 20
9.7211111772
 30
0.0
 11
399.8216867057
 21
11.9423130006
 31
0.0
  0
LINE
  5
6EE
330
1F
100
AcDbEntity
  8
0
  6
Continuous
 62
     7
370
    15
100
AcDbLine
 10
399.8818575498
 20
9.7211111772
 30
0.0
 11
396.1611768811
 21
7.9036412247
 31
0.0
  0
LINE
  5
6EF
330
1F
100
AcDbEntity
  8
0
  6
Continuous
 62
     7
370
    15
100
AcDbLine
 10
399.9721282961
 20
4.7219261244
 30
0.0
 11
396.1882581049
 21
6.4038857089
 31
0.0
  0
LINE
  5
6F0
330
1F
100
AcDbEntity
  8
0
  6
Continuous
 62
     7
370
    15
100
AcDbLine
 10
399.9921874237
 20
2.5
 30
0.0
 11
399.9721282961
 21
4.7219261244
 31
0.0
  0
LINE
  5
6F1
330
1F
100
AcDbEntity
  8
0
  6
Continuous
 62
     7
370
    15
100
AcDbLine
 10
399.9921874237
 20
2.5
 30
0.0
 11
396.2393003128
 21
0.75
 31
0.0
  0
LINE
  5
6F2
330
1F
100
AcDbEntity
  8
0
  6
Continuous
 62
     7
370
    15
100
AcDbLine
 10
399.9921874237
 20
-2.5
 30
0.0
 11
396.2393003128
 21
-0.75
 31
0.0
  0
LINE
  5
6F3
330
1F
100
AcDbEntity
  8
0
  6
Continuous
 62
     7
370
    15
100
AcDbLine
 10
399.9721282961
 20
-4.7219261244
 30
0.0
 11
399.9921874237
 21
-2.5
 31
0.0
  0
LINE
  5
6F4
330
1F
100
AcDbEntity
  8
0
  6
Continuous
 62
     7
370
    15
100
AcDbLine
 10
399.9721282961
 20
-4.7219261244
 30
0.0
 11
396.1882581049
 21
-6.4038857089
 31
0.0
  0
LINE
  5
6F5
330
1F
100
AcDbEntity
  8
0
  6
Continuous
 62
     7
370
    15
100
AcDbLine
 10
399.8818575498
 20
-9.7211111772
 30
0.0
 11
396.1611768811
 21
-7.9036412247
 31
0.0
  0
LINE
  5
6F6
330
1F
100
AcDbEntity
  8
0
  6
Continuous
 62
     7
370
    15
100
AcDbLine
 10
399.8216867057
 20
-11.9423130006
 30
0.0
 11
399.8818575498
 21
-9.7211111772
 31
0.0
  0
LINE
  5
6F7
330
1F
100
AcDbEntity
  8
0
  6
Continuous
 62
     7
370
    15
100
AcDbLine
 10
399.8216867057
 20
-11.9423130006
 30
0.0
 11
396.0080668961
 21
-13.5556838863
 31
0.0
  0
LINE
  5
6F8
330
1F
100
AcDbEntity
  8
0
  6
Continuous
 62
     7
370
    15
100
AcDbLine
 10
399.6411746396
 20
-16.9390534776
 30
0.0
 11
395.9539132762
 21
-15.0547060294
 31
0.0
  0
LINE
  5
6F9
330
1F
100
AcDbEntity
  8
0
  6
Continuous
 62
     7
370
    15
100
AcDbLine
 10
399.5409116934
 20
-19.1588069352
 30
0.0
 11
399.6411746396
 21
-16.9390534776
 31
0.0
  0
LINE
  5
6FA
330
1F
100
AcDbEntity
  8
0
  6
Continuous
 62
     7
370
    15
100
AcDbLine
 10
399.5409116934
 20
-19.1588069352
 30
0.0
 11
395.6987854248
 21
-20.7030631972
 31
0.0
  0
LINE
  5
6FB
330
1F
100
AcDbEntity
  8
0
  6
Continuous
 62
     7
370
    15
100
AcDbLine
 10
399.2702171505
 20
-24.1514740044
 30
0.0
 11
395.6175770619
 21
-22.200863318
 31
0.0
  0
LINE
  5
6FC
330
1F
100
AcDbEntity
  8
0
  6
Continuous
 62
     7
370
    15
100
AcDbLine
 10
399.129894786
 20
-26.3690555035
 30
0.0
 11
399.2702171505
 21
-24.1514740044
 31
0.0
  0
LINE
  5
6FD
330
1F
100
AcDbEntity
  8
0
  6
Continuous
 62
     7
370
    15
100
AcDbLine
 10
399.129894786
 20
-26.3690555035
 30
0.0
 11
395.2605145103
 21
-27.8436937469
 31
0.0
  0
LINE
  5
6FE
330
1F
100
AcDbEntity
  8
0
  6
Continuous
 62
     7
370
    15
100
AcDbLine
 10
398.769106007
 20
-31.3560216611
 30
0.0
 11
395.1522778766
 21
-29.3397835942
 31
0.0
  0
LINE
  5
6FF
330
1F
100
AcDbEntity
  8
0
  6
Continuous
 62
     7
370
    15
100
AcDbLine
 10
398.5887699661
 20
-33.5707083168
 30
0.0
 11
398.769106007
 21
-31.3560216611
 31
0.0
  0
LINE
  5
700
330
1F
100
AcDbEntity
  8
0
  6
Continuous
 62
     7
370
    15
100
AcDbLine
 10
398.5887699661
 20
-33.5707083168
 30
0.0
 11
394.6933970196
 21
-34.9752478408
 31
0.0
  0
LINE
  5
701
330
1F
100
AcDbEntity
  8
0
  6
Continuous
 62
     7
370
    15
100
AcDbLine
 10
398.1380045606
 20
-38.5503479172
 30
0.0
 11
394.5581673979
 21
-36.4691397209
 31
0.0
  0
LINE
  5
702
330
1F
100
AcDbEntity
  8
0
  6
Continuous
 62
     7
370
    15
100
AcDbLine
 10
397.9177136292
 20
-40.7614177886
 30
0.0
 11
398.1380045606
 21
-38.5503479172
 31
0.0
  0
LINE
  5
703
330
1F
100
AcDbEntity
  8
0
  6
Continuous
 62
     7
370
    15
100
AcDbLine
 10
397.9177136292
 20
-40.7614177886
 30
0.0
 11
393.9976178211
 21
-42.0954007429
 31
0.0
  0
LINE
  5
704
330
1F
100
AcDbEntity
  8
0
  6
Continuous
 62
     7
370
    15
100
AcDbLine
 10
397.377118537
 20
-45.7321075744
 30
0.0
 11
393.8354392934
 21
-43.5866076787
 31
0.0
  0
LINE
  5
705
330
1F
100
AcDbEntity
  8
0
  6
Continuous
 62
     7
370
    15
100
AcDbLine
 10
397.1169445253
 20
-47.9388398994
 30
0.0
 11
397.377118537
 21
-45.7321075744
 31
0.0
  0
LINE
  5
706
330
1F
100
AcDbEntity
  8
0
  6
Continuous
 62
     7
370
    15
100
AcDbLine
 10
397.1169445253
 20
-47.9388398994
 30
0.0
 11
393.173403724
 21
-49.2018314339
 31
0.0
  0
LINE
  5
707
330
1F
100
AcDbEntity
  8
0
  6
Continuous
 62
     7
370
    15
100
AcDbLine
 10
396.4866959692
 20
-52.8989595308
 30
0.0
 11
392.9843291572
 21
-50.6898673233
 31
0.0
  0
LINE
  5
708
330
1F
100
AcDbEntity
  8
0
  6
Continuous
 62
     7
370
    15
100
AcDbLine
 10
396.1867236883
 20
-55.1006349614
 30
0.0
 11
396.4866959692
 21
-52.8989595308
 31
0.0
  0
LINE
  5
709
330
1F
100
AcDbEntity
  8
0
  6
Continuous
 62
     7
370
    15
100
AcDbLine
 10
396.1867236883
 20
-55.1006349614
 30
0.0
 11
392.2210234049
 21
-56.2922233673
 31
0.0
  0
LINE
  5
70A
330
1F
100
AcDbEntity
  8
0
  6
Continuous
 62
     7
370
    15
100
AcDbLine
 10
395.4670271159
 20
-60.0485675442
 30
0.0
 11
392.0051144331
 21
-57.7766031421
 31
0.0
  0
LINE
  5
70B
330
1F
100
AcDbEntity
  8
0
  6
Continuous
 62
     7
370
    15
100
AcDbLine
 10
395.1273543505
 20
-62.2444683806
 30
0.0
 11
395.4670271159
 21
-60.0485675442
 31
0.0
  0
LINE
  5
70C
330
1F
100
AcDbEntity
  8
0
  6
Continuous
 62
     7
370
    15
100
AcDbLine
 10
395.1273543505
 20
-62.2444683806
 30
0.0
 11
391.1407873194
 21
-63.3642652254
 31
0.0
  0
LINE
  5
70D
330
1F
100
AcDbEntity
  8
0
  6
Continuous
 62
     7
370
    15
100
AcDbLine
 10
394.3184443677
 20
-67.1786009933
 30
0.0
 11
390.8981143246
 21
-64.8445050092
 31
0.0
  0
LINE
  5
70E
330
1F
100
AcDbEntity
  8
0
  6
Continuous
 62
     7
370
    15
100
AcDbLine
 10
393.9391818439
 20
-69.3680114182
 30
0.0
 11
394.3184443677
 21
-67.1786009933
 31
0.0
  0
LINE
  5
70F
330
1F
100
AcDbEntity
  8
0
  6
Continuous
 62
     7
370
    15
100
AcDbLine
 10
393.9391818439
 20
-69.3680114182
 30
0.0
 11
389.9330476018
 21
-70.4156516718
 31
0.0
  0
LINE
  5
710
330
1F
100
AcDbEntity
  8
0
  6
Continuous
 62
     7
370
    15
100
AcDbLine
 10
393.0413221384
 20
-74.2867356379
 30
0.0
 11
389.6636896901
 21
-71.8912689377
 31
0.0
  0
LINE
  5
711
330
1F
100
AcDbEntity
  8
0
  6
Continuous
 62
     7
370
    15
100
AcDbLine
 10
392.6225934878
 20
-76.4689419499
 30
0.0
 11
393.0413221384
 21
-74.2867356379
 31
0.0
  0
LINE
  5
712
330
1F
100
AcDbEntity
  8
0
  6
Continuous
 62
     7
370
    15
100
AcDbLine
 10
392.6225934878
 20
-76.4689419499
 30
0.0
 11
388.5981979497
 21
-77.4440841036
 31
0.0
  0
LINE
  5
713
330
1F
100
AcDbEntity
  8
0
  6
Continuous
 62
     7
370
    15
100
AcDbLine
 10
391.6360767426
 20
-81.3706543763
 30
0.0
 11
388.3022429261
 21
-78.9145978316
 31
0.0
  0
LINE
  5
714
330
1F
100
AcDbEntity
  8
0
  6
Continuous
 62
     7
370
    15
100
AcDbLine
 10
391.178018462
 20
-83.5449452222
 30
0.0
 11
391.6360767426
 21
-81.3706543763
 31
0.0
  0
LINE
  5
715
330
1F
100
AcDbEntity
  8
0
  6
Continuous
 62
     7
370
    15
100
AcDbLine
 10
391.178018462
 20
-83.5449452222
 30
0.0
 11
387.1366734958
 21
-84.4472714004
 31
0.0
  0
LINE
  5
716
330
1F
100
AcDbEntity
  8
0
  6
Continuous
 62
     7
370
    15
100
AcDbLine
 10
390.1031662609
 20
-88.4280480007
 30
0.0
 11
386.8142178355
 21
-85.9122022339
 31
0.0
  0
LINE
  5
717
330
1F
100
AcDbEntity
  8
0
  6
Continuous
 62
     7
370
    15
100
AcDbLine
 10
389.6059276674
 20
-90.5937146076
 30
0.0
 11
390.1031662609
 21
-88.4280480007
 31
0.0
  0
LINE
  5
718
330
1F
100
AcDbEntity
  8
0
  6
Continuous
 62
     7
370
    15
100
AcDbLine
 10
389.6059276674
 20
-90.5937146076
 30
0.0
 11
385.5489506663
 21
-91.4229306709
 31
0.0
  0
LINE
  5
719
330
1F
100
AcDbEntity
  8
0
  6
Continuous
 62
     7
370
    15
100
AcDbLine
 10
388.4430903896
 20
-95.4566159499
 30
0.0
 11
385.200099483
 21
-92.8818010736
 31
0.0
  0
LINE
  5
71A
330
1F
100
AcDbEntity
  8
0
  6
Continuous
 62
     7
370
    15
100
AcDbLine
 10
387.9068335726
 20
-97.6129523562
 30
0.0
 11
388.4430903896
 21
-95.4566159499
 31
0.0
  0
LINE
  5
71B
330
1F
100
AcDbEntity
  8
0
  6
Continuous
 62
     7
370
    15
100
AcDbLine
 10
387.9068335726
 20
-97.6129523562
 30
0.0
 11
383.8355470253
 21
-98.3687879978
 31
0.0
  0
LINE
  5
71C
330
1F
100
AcDbEntity
  8
0
  6
Continuous
 62
     7
370
    15
100
AcDbLine
 10
386.6563902783
 20
-102.4540670592
 30
0.0
 11
383.460414037
 21
-99.8211224087
 31
0.0
  0
LINE
  5
71D
330
1F
100
AcDbEntity
  8
0
  6
Continuous
 62
     7
370
    15
100
AcDbLine
 10
386.0812900462
 20
-104.6003703448
 30
0.0
 11
386.6563902783
 21
-102.4540670592
 31
0.0
  0
LINE
  5
71E
330
1F
100
AcDbEntity
  8
0
  6
Continuous
 62
     7
370
    15
100
AcDbLine
 10
386.0812900462
 20
-104.6003703448
 30
0.0
 11
381.9970211061
 21
-105.2825791783
 31
0.0
  0
LINE
  5
71F
330
1F
100
AcDbEntity
  8
0
  6
Continuous
 62
     7
370
    15
100
AcDbLine
 10
384.7436483535
 20
-109.4181203074
 30
0.0
 11
381.5957285983
 21
-106.7279041671
 31
0.0
  0
LINE
  5
720
330
1F
100
AcDbEntity
  8
0
  6
Continuous
 62
     7
370
    15
100
AcDbLine
 10
384.1298921768
 20
-111.5536908229
 30
0.0
 11
384.7436483535
 21
-109.4181203074
 31
0.0
  0
LINE
  5
721
330
1F
100
AcDbEntity
  8
0
  6
Continuous
 62
     7
370
    15
100
AcDbLine
 10
384.1298921768
 20
-111.5536908229
 30
0.0
 11
380.0339722294
 21
-112.1620504625
 31
0.0
  0
LINE
  5
722
330
1F
100
AcDbEntity
  8
0
  6
Continuous
 62
     7
370
    15
100
AcDbLine
 10
382.7054881288
 20
-116.3465055604
 30
0.0
 11
379.606651015
 21
-113.5998948837
 31
0.0
  0
LINE
  5
723
330
1F
100
AcDbEntity
  8
0
  6
Continuous
 62
     7
370
    15
100
AcDbLine
 10
382.053276079
 20
-118.4706471548
 30
0.0
 11
382.7054881288
 21
-116.3465055604
 31
0.0
  0
LINE
  5
724
330
1F
100
AcDbEntity
  8
0
  6
Continuous
 62
     7
370
    15
100
AcDbLine
 10
382.053276079
 20
-118.4706471548
 30
0.0
 11
377.9470403075
 21
-119.0049592881
 31
0.0
  0
LINE
  5
725
330
1F
100
AcDbEntity
  8
0
  6
Continuous
 62
     7
370
    15
100
AcDbLine
 10
380.5425740012
 20
-123.2369643108
 30
0.0
 11
377.4938296842
 21
-120.4348544349
 31
0.0
  0
LINE
  5
726
330
1F
100
AcDbEntity
  8
0
  6
Continuous
 62
     7
370
    15
100
AcDbLine
 10
379.8521186858
 20
-125.3489845589
 30
0.0
 11
380.5425740012
 21
-123.2369643108
 31
0.0
  0
LINE
  5
727
330
1F
100
AcDbEntity
  8
0
  6
Continuous
 62
     7
370
    15
100
AcDbLine
 10
379.8521186858
 20
-125.3489845589
 30
0.0
 11
375.7369056363
 21
-125.8090750115
 31
0.0
  0
LINE
  5
728
330
1F
100
AcDbEntity
  8
0
  6
Continuous
 62
     7
370
    15
100
AcDbLine
 10
378.2556110351
 20
-130.0872504148
 30
0.0
 11
375.2579533411
 21
-127.2305547683
 31
0.0
  0
LINE
  5
729
330
1F
100
AcDbEntity
  8
0
  6
Continuous
 62
     7
370
    15
100
AcDbLine
 10
377.5271375278
 20
-132.1864608425
 30
0.0
 11
378.2556110351
 21
-130.0872504148
 31
0.0
  0
LINE
  5
72A
330
1F
100
AcDbEntity
  8
0
  6
Continuous
 62
     7
370
    15
100
AcDbLine
 10
377.5271375278
 20
-132.1864608425
 30
0.0
 11
373.4042886729
 21
-132.5721796347
 31
0.0
  0
LINE
  5
72B
330
1F
100
AcDbEntity
  8
0
  6
Continuous
 62
     7
370
    15
100
AcDbLine
 10
375.845344732
 20
-136.8951308238
 30
0.0
 11
372.8997508341
 21
-133.9847806291
 31
0.0
  0
LINE
  5
72C
330
1F
100
AcDbEntity
  8
0
  6
Continuous
 62
     7
370
    15
100
AcDbLine
 10
375.0790904998
 20
-138.980847133
 30
0.0
 11
375.845344732
 21
-136.8951308238
 31
0.0
  0
LINE
  5
72D
330
1F
100
AcDbEntity
  8
0
  6
Continuous
 62
     7
370
    15
100
AcDbLine
 10
375.0790904998
 20
-138.980847133
 30
0.0
 11
370.9499498011
 21
-139.2920685285
 31
0.0
  0
LINE
  5
72E
330
1F
100
AcDbEntity
  8
0
  6
Continuous
 62
     7
370
    15
100
AcDbLine
 10
373.3125607879
 20
-143.6583863126
 30
0.0
 11
370.4199908875
 21
-140.6953302824
 31
0.0
  0
LINE
  5
72F
330
1F
100
AcDbEntity
  8
0
  6
Continuous
 62
     7
370
    15
100
AcDbLine
 10
372.5087756136
 20
-145.7299286038
 30
0.0
 11
373.3125607879
 21
-143.6583863126
 31
0.0
  0
LINE
  5
730
330
1F
100
AcDbEntity
  8
0
  6
Continuous
 62
     7
370
    15
100
AcDbLine
 10
372.5087756136
 20
-145.7299286038
 30
0.0
 11
368.3746890836
 21
-145.9665511511
 31
0.0
  0
LINE
  5
731
330
1F
100
AcDbEntity
  8
0
  6
Continuous
 62
     7
370
    15
100
AcDbLine
 10
370.6580848369
 20
-150.3748122029
 30
0.0
 11
367.8194818506
 21
-147.3600162308
 31
0.0
  0
LINE
  5
732
330
1F
100
AcDbEntity
  8
0
  6
Continuous
 62
     7
370
    15
100
AcDbLine
 10
369.8170307373
 20
-152.4315051971
 30
0.0
 11
370.6580848369
 21
-150.3748122029
 31
0.0
  0
LINE
  5
733
330
1F
100
AcDbEntity
  8
0
  6
Continuous
 62
     7
370
    15
100
AcDbLine
 10
369.8170307373
 20
-152.4315051971
 30
0.0
 11
365.679346001
 21
-152.5934517622
 31
0.0
  0
LINE
  5
734
330
1F
100
AcDbEntity
  8
0
  6
Continuous
 62
     7
370
    15
100
AcDbLine
 10
367.8827821819
 20
-157.0422190818
 30
0.0
 11
365.0990714343
 21
-153.9766659276
 31
0.0
  0
LINE
  5
735
330
1F
100
AcDbEntity
  8
0
  6
Continuous
 62
     7
370
    15
100
AcDbLine
 10
367.0047333229
 20
-159.0833923405
 30
0.0
 11
367.8827821819
 21
-157.0422190818
 31
0.0
  0
LINE
  5
736
330
1F
100
AcDbEntity
  8
0
  6
Continuous
 62
     7
370
    15
100
AcDbLine
 10
367.0047333229
 20
-159.0833923405
 30
0.0
 11
362.8647991781
 21
-159.1706101322
 31
0.0
  0
LINE
  5
737
330
1F
100
AcDbEntity
  8
0
  6
Continuous
 62
     7
370
    15
100
AcDbLine
 10
364.987557513
 20
-163.6584335154
 30
0.0
 11
362.2596464351
 21
-160.5431224847
 31
0.0
  0
LINE
  5
738
330
1F
100
AcDbEntity
  8
0
  6
Continuous
 62
     7
370
    15
100
AcDbLine
 10
364.0728001201
 20
-165.6834216593
 30
0.0
 11
364.987557513
 21
-163.6584335154
 31
0.0
  0
LINE
  5
739
330
1F
100
AcDbEntity
  8
0
  6
Continuous
 62
     7
370
    15
100
AcDbLine
 10
364.0728001201
 20
-165.6834216593
 30
0.0
 11
359.9319660977
 21
-165.6958822465
 31
0.0
  0
LINE
  5
73A
330
1F
100
AcDbEntity
  8
0
  6
Continuous
 62
     7
370
    15
100
AcDbLine
 10
361.9733546123
 20
-170.2212987576
 30
0.0
 11
359.3021324454
 21
-167.057245376
 31
0.0
  0
LINE
  5
73B
330
1F
100
AcDbEntity
  8
0
  6
Continuous
 62
     7
370
    15
100
AcDbLine
 10
361.022186877
 20
-172.2294416834
 30
0.0
 11
361.9733546123
 21
-170.2212987576
 31
0.0
  0
LINE
  5
73C
330
1F
100
AcDbEntity
  8
0
  6
Continuous
 62
     7
370
    15
100
AcDbLine
 10
361.022186877
 20
-172.2294416834
 30
0.0
 11
356.8818028015
 21
-172.1671410042
 31
0.0
  0
LINE
  5
73D
330
1F
100
AcDbEntity
  8
0
  6
Continuous
 62
     7
370
    15
100
AcDbLine
 10
358.8411560462
 20
-176.7286754532
 30
0.0
 11
356.2274935523
 21
-173.5169111351
 31
0.0
  0
LINE
  5
73E
330
1F
100
AcDbEntity
  8
0
  6
Continuous
 62
     7
370
    15
100
AcDbLine
 10
357.8538880291
 20
-178.7193185486
 30
0.0
 11
358.8411560462
 21
-176.7286754532
 31
0.0
  0
LINE
  5
73F
330
1F
100
AcDbEntity
  8
0
  6
Continuous
 62
     7
370
    15
100
AcDbLine
 10
357.8538880291
 20
-178.7193185486
 30
0.0
 11
353.7153035782
 21
-178.5822769116
 31
0.0
  0
LINE
  5
740
330
1F
100
AcDbEntity
  8
0
  6
Continuous
 62
     7
370
    15
100
AcDbLine
 10
355.5919828453
 20
-183.1784423346
 30
0.0
 11
353.0367320231
 21
-179.9200140475
 31
0.0
  0
LINE
  5
741
330
1F
100
AcDbEntity
  8
0
  6
Continuous
 62
     7
370
    15
100
AcDbLine
 10
354.5689363749
 20
-185.1509366921
 30
0.0
 11
355.5919828453
 21
-183.1784423346
 31
0.0
  0
LINE
  5
742
330
1F
100
AcDbEntity
  8
0
  6
Continuous
 62
     7
370
    15
100
AcDbLine
 10
354.5689363749
 20
-185.1509366921
 30
0.0
 11
350.4335006398
 21
-184.9391987702
 31
0.0
  0
LINE
  5
743
330
1F
100
AcDbEntity
  8
0
  6
Continuous
 62
     7
370
    15
100
AcDbLine
 10
352.2268941714
 20
-189.5684969144
 30
0.0
 11
349.7308879787
 21
-186.2644668368
 31
0.0
  0
LINE
  5
744
330
1F
100
AcDbEntity
  8
0
  6
Continuous
 62
     7
370
    15
100
AcDbLine
 10
351.1684027392
 20
-191.5221995424
 30
0.0
 11
352.2268941714
 21
-189.5684969144
 31
0.0
  0
LINE
  5
745
330
1F
100
AcDbEntity
  8
0
  6
Continuous
 62
     7
370
    15
100
AcDbLine
 10
351.1684027392
 20
-191.5221995424
 30
0.0
 11
347.0374637845
 21
-191.2358343575
 31
0.0
  0
LINE
  5
746
330
1F
100
AcDbEntity
  8
0
  6
Continuous
 62
     7
370
    15
100
AcDbLine
 10
348.7469869723
 20
-195.8967561695
 30
0.0
 11
346.3110390544
 21
-192.5482013457
 31
0.0
  0
LINE
  5
747
330
1F
100
AcDbEntity
  8
0
  6
Continuous
 62
     7
370
    15
100
AcDbLine
 10
347.6533956242
 20
-197.8310302024
 30
0.0
 11
348.7469869723
 21
-195.8967561695
 31
0.0
  0
LINE
  5
748
330
1F
100
AcDbEntity
  8
0
  6
Continuous
 62
     7
370
    15
100
AcDbLine
 10
347.6533956242
 20
-197.8310302024
 30
0.0
 11
343.5283000487
 21
-197.4701311036
 31
0.0
  0
LINE
  5
749
330
1F
100
AcDbEntity
  8
0
  6
Continuous
 62
     7
370
    15
100
AcDbLine
 10
345.1533956242
 20
-202.1611572213
 30
0.0
 11
342.7783000487
 21
-198.7691692092
 31
0.0
  0
LINE
  5
74A
330
1F
100
AcDbEntity
  8
0
  6
Continuous
 62
     7
370
    15
100
AcDbLine
 10
344.0250608479
 20
-204.0753721265
 30
0.0
 11
345.1533956242
 21
-202.1611572213
 31
0.0
  0
LINE
  5
74B
330
1F
100
AcDbEntity
  8
0
  6
Continuous
 62
     7
370
    15
100
AcDbLine
 10
344.0250608479
 20
-204.0753721265
 30
0.0
 11
339.9071533455
 21
-203.6400567593
 31
0.0
  0
LINE
  5
74C
330
1F
100
AcDbEntity
  8
0
  6
Continuous
 62
     7
370
    15
100
AcDbLine
 10
341.447291562
 20
-208.3596580074
 30
0.0
 11
339.1338225598
 21
-204.9253425235
 31
0.0
  0
LINE
  5
74D
330
1F
100
AcDbEntity
  8
0
  6
Continuous
 62
     7
370
    15
100
AcDbLine
 10
340.2845811708
 20
-210.2531897914
 30
0.0
 11
341.447291562
 21
-208.3596580074
 31
0.0
  0
LINE
  5
74E
330
1F
100
AcDbEntity
  8
0
  6
Continuous
 62
     7
370
    15
100
AcDbLine
 10
340.2845811708
 20
-210.2531897914
 30
0.0
 11
336.1752040924
 21
-209.7436000592
 31
0.0
  0
LINE
  5
74F
330
1F
100
AcDbEntity
  8
0
  6
Continuous
 62
     7
370
    15
100
AcDbLine
 10
337.6298828973
 20
-214.4902379474
 30
0.0
 11
335.3787946104
 21
-211.0147145061
 31
0.0
  0
LINE
  5
750
330
1F
100
AcDbEntity
  8
0
  6
Continuous
 62
     7
370
    15
100
AcDbLine
 10
336.4331759101
 20
-216.3624693588
 30
0.0
 11
337.6298828973
 21
-214.4902379474
 31
0.0
  0
LINE
  5
751
330
1F
100
AcDbEntity
  8
0
  6
Continuous
 62
     7
370
    15
100
AcDbLine
 10
336.4331759101
 20
-216.3624693588
 30
0.0
 11
332.3336688259
 21
-215.7787713773
 31
0.0
  0
LINE
  5
752
330
1F
100
AcDbEntity
  8
0
  6
Continuous
 62
     7
370
    15
100
AcDbLine
 10
333.7024140246
 20
-220.5508986019
 30
0.0
 11
331.5144402603
 21
-217.0353001503
 31
0.0
  0
LINE
  5
753
330
1F
100
AcDbEntity
  8
0
  6
Continuous
 62
     7
370
    15
100
AcDbLine
 10
332.4721005427
 20
-222.4012193328
 30
0.0
 11
333.7024140246
 21
-220.5508986019
 31
0.0
  0
LINE
  5
754
330
1F
100
AcDbEntity
  8
0
  6
Continuous
 62
     7
370
    15
100
AcDbLine
 10
332.4721005427
 20
-222.4012193328
 30
0.0
 11
328.3837998053
 21
-221.7436033752
 31
0.0
  0
LINE
  5
755
330
1F
100
AcDbEntity
  8
0
  6
Continuous
 62
     7
370
    15
100
AcDbLine
 10
329.6661652159
 20
-226.5396643236
 30
0.0
 11
327.5420192073
 21
-222.9851368724
 31
0.0
  0
LINE
  5
756
330
1F
100
AcDbEntity
  8
0
  6
Continuous
 62
     7
370
    15
100
AcDbLine
 10
328.4026462954
 20
-228.3674712085
 30
0.0
 11
329.6661652159
 21
-226.5396643236
 31
0.0
  0
LINE
  5
757
330
1F
100
AcDbEntity
  8
0
  6
Continuous
 62
     7
370
    15
100
AcDbLine
 10
328.4026462954
 20
-228.3674712085
 30
0.0
 11
324.3268846045
 21
-227.6361516436
 31
0.0
  0
LINE
  5
758
330
1F
100
AcDbEntity
  8
0
  6
Continuous
 62
     7
370
    15
100
AcDbLine
 10
325.5224522029
 20
-232.4545829013
 30
0.0
 11
323.4628263768
 21
-228.8622851515
 31
0.0
  0
LINE
  5
759
330
1F
100
AcDbEntity
  8
0
  6
Continuous
 62
     7
370
    15
100
AcDbLine
 10
324.2261397244
 20
-234.2592801138
 30
0.0
 11
325.5224522029
 21
-232.4545829013
 31
0.0
  0
LINE
  5
75A
330
1F
100
AcDbEntity
  8
0
  6
Continuous
 62
     7
370
    15
100
AcDbLine
 10
324.2261397244
 20
-234.2592801138
 30
0.0
 11
320.1642456921
 21
-233.4544953364
 31
0.0
  0
LINE
  5
75B
330
1F
100
AcDbEntity
  8
0
  6
Continuous
 62
     7
370
    15
100
AcDbLine
 10
321.2726257485
 20
-238.2937261965
 30
0.0
 11
319.2781914994
 21
-234.6648291612
 31
0.0
  0
LINE
  5
75C
330
1F
100
AcDbEntity
  8
0
  6
Continuous
 62
     7
370
    15
100
AcDbLine
 10
319.9439422824
 20
-240.0747254435
 30
0.0
 11
321.2726257485
 21
-238.2937261965
 31
0.0
  0
LINE
  5
75D
330
1F
100
AcDbEntity
  8
0
  6
Continuous
 62
     7
370
    15
100
AcDbLine
 10
319.9439422824
 20
-240.0747254435
 30
0.0
 11
315.8972400005
 21
-239.1967377965
 31
0.0
  0
LINE
  5
75E
330
1F
100
AcDbEntity
  8
0
  6
Continuous
 62
     7
370
    15
100
AcDbLine
 10
316.9180712065
 20
-244.055190772
 30
0.0
 11
314.9894786777
 21
-240.390877395
 31
0.0
  0
LINE
  5
75F
330
1F
100
AcDbEntity
  8
0
  6
Continuous
 62
     7
370
    15
100
AcDbLine
 10
315.5574498755
 20
-245.8119114854
 30
0.0
 11
316.9180712065
 21
-244.055190772
 31
0.0
  0
LINE
  5
760
330
1F
100
AcDbEntity
  8
0
  6
Continuous
 62
     7
370
    15
100
AcDbLine
 10
315.5574498755
 20
-245.8119114854
 30
0.0
 11
311.5272584833
 21
-244.861007174
 31
0.0
  0
LINE
  5
761
330
1F
100
AcDbEntity
  8
0
  6
Continuous
 62
     7
370
    15
100
AcDbLine
 10
312.4602080694
 20
-249.7370985121
 30
0.0
 11
310.5980859415
 21
-246.038563282
 31
0.0
  0
LINE
  5
762
330
1F
100
AcDbEntity
  8
0
  6
Continuous
 62
     7
370
    15
100
AcDbLine
 10
311.0680924074
 20
-251.4689680379
 30
0.0
 11
312.4602080694
 21
-249.7370985121
 31
0.0
  0
LINE
  5
763
330
1F
100
AcDbEntity
  8
0
  6
Continuous
 62
     7
370
    15
100
AcDbLine
 10
311.0680924074
 20
-251.4689680379
 30
0.0
 11
307.0557256622
 21
-250.445457037
 31
0.0
  0
LINE
  5
764
330
1F
100
AcDbEntity
  8
0
  6
Continuous
 62
     7
370
    15
100
AcDbLine
 10
307.9004895066
 20
-255.3375972347
 30
0.0
 11
306.1054447919
 21
-251.6060457961
 31
0.0
  0
LINE
  5
765
330
1F
100
AcDbEntity
  8
0
  6
Continuous
 62
     7
370
    15
100
AcDbLine
 10
306.4773333138
 20
-257.0440510202
 30
0.0
 11
307.9004895066
 21
-255.3375972347
 31
0.0
  0
LINE
  5
766
330
1F
100
AcDbEntity
  8
0
  6
Continuous
 62
     7
370
    15
100
AcDbLine
 10
306.4773333138
 20
-257.0440510202
 30
0.0
 11
302.4840991623
 21
-255.9482669727
 31
0.0
  0
LINE
  5
767
330
1F
100
AcDbEntity
  8
0
  6
Continuous
 62
     7
370
    15
100
AcDbLine
 10
303.2404018899
 20
-260.8548612958
 30
0.0
 11
301.5130197352
 21
-257.0915100554
 31
0.0
  0
LINE
  5
768
330
1F
100
AcDbEntity
  8
0
  6
Continuous
 62
     7
370
    15
100
AcDbLine
 10
301.7866690852
 20
-262.535343073
 30
0.0
 11
303.2404018899
 21
-260.8548612958
 31
0.0
  0
LINE
  5
769
330
1F
100
AcDbEntity
  8
0
  6
Continuous
 62
     7
370
    15
100
AcDbLine
 10
301.7866690852
 20
-262.535343073
 30
0.0
 11
297.8138692375
 21
-261.3676431814
 31
0.0
  0
LINE
  5
76A
330
1F
100
AcDbEntity
  8
0
  6
Continuous
 62
     7
370
    15
100
AcDbLine
 10
298.4814643094
 20
-266.2870921838
 30
0.0
 11
296.8223078047
 21
-262.4931679146
 31
0.0
  0
LINE
  5
76B
330
1F
100
AcDbEntity
  8
0
  6
Continuous
 62
     7
370
    15
100
AcDbLine
 10
296.997628779
 20
-267.9410541512
 30
0.0
 11
298.4814643094
 21
-266.2870921838
 31
0.0
  0
LINE
  5
76C
330
1F
100
AcDbEntity
  8
0
  6
Continuous
 62
     7
370
    15
100
AcDbLine
 10
296.997628779
 20
-267.9410541512
 30
0.0
 11
293.0465582838
 21
-266.7018190609
 31
0.0
  0
LINE
  5
76D
330
1F
100
AcDbEntity
  8
0
  6
Continuous
 62
     7
370
    15
100
AcDbLine
 10
293.6252280783
 20
-271.6325191061
 30
0.0
 11
292.0348380736
 21
-267.8092585474
 31
0.0
  0
LINE
  5
76E
330
1F
100
AcDbEntity
  8
0
  6
Continuous
 62
     7
370
    15
100
AcDbLine
 10
292.1117735212
 20
-273.2594221071
 30
0.0
 11
293.6252280783
 21
-271.6325191061
 31
0.0
  0
LINE
  5
76F
330
1F
100
AcDbEntity
  8
0
  6
Continuous
 62
     7
370
    15
100
AcDbLine
 10
292.1117735212
 20
-273.2594221071
 30
0.0
 11
288.183720344
 21
-271.9490557826
 31
0.0
  0
LINE
  5
770
330
1F
100
AcDbEntity
  8
0
  6
Continuous
 62
     7
370
    15
100
AcDbLine
 10
288.6732762269
 20
-276.8893995667
 30
0.0
 11
287.1521711557
 21
-273.0380490205
 31
0.0
  0
LINE
  5
771
330
1F
100
AcDbEntity
  8
0
  6
Continuous
 62
     7
370
    15
100
AcDbLine
 10
287.1306959973
 20
-278.4887132652
 30
0.0
 11
288.6732762269
 21
-276.8893995667
 31
0.0
  0
LINE
  5
772
330
1F
100
AcDbEntity
  8
0
  6
Continuous
 62
     7
370
    15
100
AcDbLine
 10
287.1306959973
 20
-278.4887132652
 30
0.0
 11
283.2269406005
 21
-277.1076428583
 31
0.0
  0
LINE
  5
773
330
1F
100
AcDbEntity
  8
0
  6
Continuous
 62
     7
370
    15
100
AcDbLine
 10
283.627222987
 20
-282.0560199334
 30
0.0
 11
282.1758986974
 21
-278.1778348588
 31
0.0
  0
LINE
  5
774
330
1F
100
AcDbEntity
  8
0
  6
Continuous
 62
     7
370
    15
100
AcDbLine
 10
282.0560199334
 20
-283.627222987
 30
0.0
 11
283.627222987
 21
-282.0560199334
 31
0.0
  0
LINE
  5
775
330
1F
100
AcDbEntity
  8
0
  6
Continuous
 62
     7
370
    15
100
AcDbLine
 10
282.0560199334
 20
-283.627222987
 30
0.0
 11
278.1778348587
 21
-282.1758986974
 31
0.0
  0
LINE
  5
776
330
1F
100
AcDbEntity
  8
0
  6
Continuous
 62
     7
370
    15
100
AcDbLine
 10
278.4887132652
 20
-287.1306959973
 30
0.0
 11
277.1076428583
 21
-283.2269406005
 31
0.0
  0
LINE
  5
777
330
1F
100
AcDbEntity
  8
0
  6
Continuous
 62
     7
370
    15
100
AcDbLine
 10
276.8893995667
 20
-288.6732762269
 30
0.0
 11
278.4887132652
 21
-287.1306959973
 31
0.0
  0
LINE
  5
778
330
1F
100
AcDbEntity
  8
0
  6
Continuous
 62
     7
370
    15
100
AcDbLine
 10
276.8893995667
 20
-288.6732762269
 30
0.0
 11
273.0380490205
 21
-287.1521711557
 31
0.0
  0
LINE
  5
779
330
1F
100
AcDbEntity
  8
0
  6
Continuous
 62
     7
370
    15
100
AcDbLine
 10
273.2594221071
 20
-292.1117735212
 30
0.0
 11
271.9490557826
 21
-288.183720344
 31
0.0
  0
LINE
  5
77A
330
1F
100
AcDbEntity
  8
0
  6
Continuous
 62
     7
370
    15
100
AcDbLine
 10
271.6325191061
 20
-293.6252280783
 30
0.0
 11
273.2594221071
 21
-292.1117735212
 31
0.0
  0
LINE
  5
77B
330
1F
100
AcDbEntity
  8
0
  6
Continuous
 62
     7
370
    15
100
AcDbLine
 10
271.6325191061
 20
-293.6252280783
 30
0.0
 11
267.8092585474
 21
-292.0348380736
 31
0.0
  0
LINE
  5
77C
330
1F
100
AcDbEntity
  8
0
  6
Continuous
 62
     7
370
    15
100
AcDbLine
 10
267.9410541512
 20
-296.997628779
 30
0.0
 11
266.7018190609
 21
-293.0465582838
 31
0.0
  0
LINE
  5
77D
330
1F
100
AcDbEntity
  8
0
  6
Continuous
 62
     7
370
    15
100
AcDbLine
 10
266.2870921838
 20
-298.4814643094
 30
0.0
 11
267.9410541512
 21
-296.997628779
 31
0.0
  0
LINE
  5
77E
330
1F
100
AcDbEntity
  8
0
  6
Continuous
 62
     7
370
    15
100
AcDbLine
 10
266.2870921838
 20
-298.4814643094
 30
0.0
 11
262.4931679146
 21
-296.8223078047
 31
0.0
  0
LINE
  5
77F
330
1F
100
AcDbEntity
  8
0
  6
Continuous
 62
     7
370
    15
100
AcDbLine
 10
262.535343073
 20
-301.7866690852
 30
0.0
 11
261.3676431814
 21
-297.8138692375
 31
0.0
  0
LINE
  5
780
330
1F
100
AcDbEntity
  8
0
  6
Continuous
 62
     7
370
    15
100
AcDbLine
 10
260.8548612958
 20
-303.2404018899
 30
0.0
 11
262.535343073
 21
-301.7866690852
 31
0.0
  0
LINE
  5
781
330
1F
100
AcDbEntity
  8
0
  6
Continuous
 62
     7
370
    15
100
AcDbLine
 10
260.8548612958
 20
-303.2404018899
 30
0.0
 11
257.0915100554
 21
-301.5130197352
 31
0.0
  0
LINE
  5
782
330
1F
100
AcDbEntity
  8
0
  6
Continuous
 62
     7
370
    15
100
AcDbLine
 10
257.0440510202
 20
-306.4773333138
 30
0.0
 11
255.9482669727
 21
-302.4840991623
 31
0.0
  0
LINE
  5
783
330
1F
100
AcDbEntity
  8
0
  6
Continuous
 62
     7
370
    15
100
AcDbLine
 10
255.3375972347
 20
-307.9004895066
 30
0.0
 11
257.0440510202
 21
-306.4773333138
 31
0.0
  0
LINE
  5
784
330
1F
100
AcDbEntity
  8
0
  6
Continuous
 62
     7
370
    15
100
AcDbLine
 10
255.3375972347
 20
-307.9004895066
 30
0.0
 11
251.6060457961
 21
-306.1054447919
 31
0.0
  0
LINE
  5
785
330
1F
100
AcDbEntity
  8
0
  6
Continuous
 62
     7
370
    15
100
AcDbLine
 10
251.4689680379
 20
-311.0680924074
 30
0.0
 11
250.445457037
 21
-307.0557256622
 31
0.0
  0
LINE
  5
786
330
1F
100
AcDbEntity
  8
0
  6
Continuous
 62
     7
370
    15
100
AcDbLine
 10
249.7370985121
 20
-312.4602080694
 30
0.0
 11
251.4689680379
 21
-311.0680924074
 31
0.0
  0
LINE
  5
787
330
1F
100
AcDbEntity
  8
0
  6
Continuous
 62
     7
370
    15
100
AcDbLine
 10
249.7370985121
 20
-312.4602080694
 30
0.0
 11
246.038563282
 21
-310.5980859415
 31
0.0
  0
LINE
  5
788
330
1F
100
AcDbEntity
  8
0
  6
Continuous
 62
     7
370
    15
100
AcDbLine
 10
245.8119114853
 20
-315.5574498755
 30
0.0
 11
244.861007174
 21
-311.5272584833
 31
0.0
  0
LINE
  5
789
330
1F
100
AcDbEntity
  8
0
  6
Continuous
 62
     7
370
    15
100
AcDbLine
 10
244.055190772
 20
-316.9180712065
 30
0.0
 11
245.8119114853
 21
-315.5574498755
 31
0.0
  0
LINE
  5
78A
330
1F
100
AcDbEntity
  8
0
  6
Continuous
 62
     7
370
    15
100
AcDbLine
 10
244.055190772
 20
-316.9180712065
 30
0.0
 11
240.390877395
 21
-314.9894786777
 31
0.0
  0
LINE
  5
78B
330
1F
100
AcDbEntity
  8
0
  6
Continuous
 62
     7
370
    15
100
AcDbLine
 10
240.0747254435
 20
-319.9439422824
 30
0.0
 11
239.1967377965
 21
-315.8972400005
 31
0.0
  0
LINE
  5
78C
330
1F
100
AcDbEntity
  8
0
  6
Continuous
 62
     7
370
    15
100
AcDbLine
 10
238.2937261965
 20
-321.2726257486
 30
0.0
 11
240.0747254435
 21
-319.9439422824
 31
0.0
  0
LINE
  5
78D
330
1F
100
AcDbEntity
  8
0
  6
Continuous
 62
     7
370
    15
100
AcDbLine
 10
238.2937261965
 20
-321.2726257486
 30
0.0
 11
234.6648291612
 21
-319.2781914994
 31
0.0
  0
LINE
  5
78E
330
1F
100
AcDbEntity
  8
0
  6
Continuous
 62
     7
370
    15
100
AcDbLine
 10
234.2592801138
 20
-324.2261397244
 30
0.0
 11
233.4544953364
 21
-320.1642456921
 31
0.0
  0
LINE
  5
78F
330
1F
100
AcDbEntity
  8
0
  6
Continuous
 62
     7
370
    15
100
AcDbLine
 10
232.4545829013
 20
-325.5224522029
 30
0.0
 11
234.2592801138
 21
-324.2261397244
 31
0.0
  0
LINE
  5
790
330
1F
100
AcDbEntity
  8
0
  6
Continuous
 62
     7
370
    15
100
AcDbLine
 10
232.4545829013
 20
-325.5224522029
 30
0.0
 11
228.8622851515
 21
-323.4628263768
 31
0.0
  0
LINE
  5
791
330
1F
100
AcDbEntity
  8
0
  6
Continuous
 62
     7
370
    15
100
AcDbLine
 10
228.3674712085
 20
-328.4026462954
 30
0.0
 11
227.6361516436
 21
-324.3268846045
 31
0.0
  0
LINE
  5
792
330
1F
100
AcDbEntity
  8
0
  6
Continuous
 62
     7
370
    15
100
AcDbLine
 10
226.5396643236
 20
-329.6661652159
 30
0.0
 11
228.3674712085
 21
-328.4026462954
 31
0.0
  0
LINE
  5
793
330
1F
100
AcDbEntity
  8
0
  6
Continuous
 62
     7
370
    15
100
AcDbLine
 10
226.5396643236
 20
-329.6661652159
 30
0.0
 11
222.9851368724
 21
-327.5420192073
 31
0.0
  0
LINE
  5
794
330
1F
100
AcDbEntity
  8
0
  6
Continuous
 62
     7
370
    15
100
AcDbLine
 10
222.4012193328
 20
-332.4721005427
 30
0.0
 11
221.7436033752
 21
-328.3837998053
 31
0.0
  0
LINE
  5
795
330
1F
100
AcDbEntity
  8
0
  6
Continuous
 62
     7
370
    15
100
AcDbLine
 10
220.5508986019
 20
-333.7024140246
 30
0.0
 11
222.4012193328
 21
-332.4721005427
 31
0.0
  0
LINE
  5
796
330
1F
100
AcDbEntity
  8
0
  6
Continuous
 62
     7
370
    15
100
AcDbLine
 10
220.5508986019
 20
-333.7024140246
 30
0.0
 11
217.0353001503
 21
-331.5144402603
 31
0.0
  0
LINE
  5
797
330
1F
100
AcDbEntity
  8
0
  6
Continuous
 62
     7
370
    15
100
AcDbLine
 10
216.3624693588
 20
-336.4331759101
 30
0.0
 11
215.7787713773
 21
-332.3336688259
 31
0.0
  0
LINE
  5
798
330
1F
100
AcDbEntity
  8
0
  6
Continuous
 62
     7
370
    15
100
AcDbLine
 10
214.4902379474
 20
-337.6298828973
 30
0.0
 11
216.3624693588
 21
-336.4331759101
 31
0.0
  0
LINE
  5
799
330
1F
100
AcDbEntity
  8
0
  6
Continuous
 62
     7
370
    15
100
AcDbLine
 10
214.4902379474
 20
-337.6298828973
 30
0.0
 11
211.0147145061
 21
-335.3787946104
 31
0.0
  0
LINE
  5
79A
330
1F
100
AcDbEntity
  8
0
  6
Continuous
 62
     7
370
    15
100
AcDbLine
 10
210.2531897914
 20
-340.2845811708
 30
0.0
 11
209.7436000592
 21
-336.1752040924
 31
0.0
  0
LINE
  5
79B
330
1F
100
AcDbEntity
  8
0
  6
Continuous
 62
     7
370
    15
100
AcDbLine
 10
208.3596580074
 20
-341.447291562
 30
0.0
 11
210.2531897914
 21
-340.2845811708
 31
0.0
  0
LINE
  5
79C
330
1F
100
AcDbEntity
  8
0
  6
Continuous
 62
     7
370
    15
100
AcDbLine
 10
208.3596580074
 20
-341.447291562
 30
0.0
 11
204.9253425235
 21
-339.1338225598
 31
0.0
  0
LINE
  5
79D
330
1F
100
AcDbEntity
  8
0
  6
Continuous
 62
     7
370
    15
100
AcDbLine
 10
204.0753721265
 20
-344.0250608479
 30
0.0
 11
203.6400567593
 21
-339.9071533455
 31
0.0
  0
LINE
  5
79E
330
1F
100
AcDbEntity
  8
0
  6
Continuous
 62
     7
370
    15
100
AcDbLine
 10
202.1611572213
 20
-345.1533956242
 30
0.0
 11
204.0753721265
 21
-344.0250608479
 31
0.0
  0
LINE
  5
79F
330
1F
100
AcDbEntity
  8
0
  6
Continuous
 62
     7
370
    15
100
AcDbLine
 10
202.1611572213
 20
-345.1533956242
 30
0.0
 11
198.7691692092
 21
-342.7783000487
 31
0.0
  0
LINE
  5
7A0
330
1F
100
AcDbEntity
  8
0
  6
Continuous
 62
     7
370
    15
100
AcDbLine
 10
197.8310302024
 20
-347.6533956242
 30
0.0
 11
197.4701311036
 21
-343.5283000487
 31
0.0
  0
LINE
  5
7A1
330
1F
100
AcDbEntity
  8
0
  6
Continuous
 62
     7
370
    15
100
AcDbLine
 10
195.8967561695
 20
-348.7469869723
 30
0.0
 11
197.8310302024
 21
-347.6533956242
 31
0.0
  0
LINE
  5
7A2
330
1F
100
AcDbEntity
  8
0
  6
Continuous
 62
     7
370
    15
100
AcDbLine
 10
195.8967561695
 20
-348.7469869723
 30
0.0
 11
192.5482013457
 21
-346.3110390544
 31
0.0
  0
LINE
  5
7A3
330
1F
100
AcDbEntity
  8
0
  6
Continuous
 62
     7
370
    15
100
AcDbLine
 10
191.5221995424
 20
-351.1684027392
 30
0.0
 11
191.2358343575
 21
-347.0374637845
 31
0.0
  0
LINE
  5
7A4
330
1F
100
AcDbEntity
  8
0
  6
Continuous
 62
     7
370
    15
100
AcDbLine
 10
189.5684969143
 20
-352.2268941714
 30
0.0
 11
191.5221995424
 21
-351.1684027392
 31
0.0
  0
LINE
  5
7A5
330
1F
100
AcDbEntity
  8
0
  6
Continuous
 62
     7
370
    15
100
AcDbLine
 10
189.5684969143
 20
-352.2268941714
 30
0.0
 11
186.2644668368
 21
-349.7308879787
 31
0.0
  0
LINE
  5
7A6
330
1F
100
AcDbEntity
  8
0
  6
Continuous
 62
     7
370
    15
100
AcDbLine
 10
185.1509366921
 20
-354.5689363749
 30
0.0
 11
184.9391987702
 21
-350.4335006398
 31
0.0
  0
LINE
  5
7A7
330
1F
100
AcDbEntity
  8
0
  6
Continuous
 62
     7
370
    15
100
AcDbLine
 10
183.1784423346
 20
-355.5919828453
 30
0.0
 11
185.1509366921
 21
-354.5689363749
 31
0.0
  0
LINE
  5
7A8
330
1F
100
AcDbEntity
  8
0
  6
Continuous
 62
     7
370
    15
100
AcDbLine
 10
183.1784423346
 20
-355.5919828453
 30
0.0
 11
179.9200140475
 21
-353.0367320231
 31
0.0
  0
LINE
  5
7A9
330
1F
100
AcDbEntity
  8
0
  6
Continuous
 62
     7
370
    15
100
AcDbLine
 10
178.7193185486
 20
-357.8538880291
 30
0.0
 11
178.5822769116
 21
-353.7153035782
 31
0.0
  0
LINE
  5
7AA
330
1F
100
AcDbEntity
  8
0
  6
Continuous
 62
     7
370
    15
100
AcDbLine
 10
176.7286754532
 20
-358.8411560462
 30
0.0
 11
178.7193185486
 21
-357.8538880291
 31
0.0
  0
LINE
  5
7AB
330
1F
100
AcDbEntity
  8
0
  6
Continuous
 62
     7
370
    15
100
AcDbLine
 10
176.7286754532
 20
-358.8411560462
 30
0.0
 11
173.5169111351
 21
-356.2274935523
 31
0.0
  0
LINE
  5
7AC
330
1F
100
AcDbEntity
  8
0
  6
Continuous
 62
     7
370
    15
100
AcDbLine
 10
172.2294416834
 20
-361.022186877
 30
0.0
 11
172.1671410041
 21
-356.8818028015
 31
0.0
  0
LINE
  5
7AD
330
1F
100
AcDbEntity
  8
0
  6
Continuous
 62
     7
370
    15
100
AcDbLine
 10
170.2212987576
 20
-361.9733546123
 30
0.0
 11
172.2294416834
 21
-361.022186877
 31
0.0
  0
LINE
  5
7AE
330
1F
100
AcDbEntity
  8
0
  6
Continuous
 62
     7
370
    15
100
AcDbLine
 10
170.2212987576
 20
-361.9733546123
 30
0.0
 11
167.057245376
 21
-359.3021324454
 31
0.0
  0
LINE
  5
7AF
330
1F
100
AcDbEntity
  8
0
  6
Continuous
 62
     7
370
    15
100
AcDbLine
 10
165.6834216593
 20
-364.0728001201
 30
0.0
 11
165.6958822465
 21
-359.9319660977
 31
0.0
  0
LINE
  5
7B0
330
1F
100
AcDbEntity
  8
0
  6
Continuous
 62
     7
370
    15
100
AcDbLine
 10
163.6584335154
 20
-364.987557513
 30
0.0
 11
165.6834216593
 21
-364.0728001201
 31
0.0
  0
LINE
  5
7B1
330
1F
100
AcDbEntity
  8
0
  6
Continuous
 62
     7
370
    15
100
AcDbLine
 10
163.6584335154
 20
-364.987557513
 30
0.0
 11
160.5431224847
 21
-362.2596464351
 31
0.0
  0
LINE
  5
7B2
330
1F
100
AcDbEntity
  8
0
  6
Continuous
 62
     7
370
    15
100
AcDbLine
 10
159.0833923405
 20
-367.0047333229
 30
0.0
 11
159.1706101322
 21
-362.8647991781
 31
0.0
  0
LINE
  5
7B3
330
1F
100
AcDbEntity
  8
0
  6
Continuous
 62
     7
370
    15
100
AcDbLine
 10
157.0422190818
 20
-367.8827821819
 30
0.0
 11
159.0833923405
 21
-367.0047333229
 31
0.0
  0
LINE
  5
7B4
330
1F
100
AcDbEntity
  8
0
  6
Continuous
 62
     7
370
    15
100
AcDbLine
 10
157.0422190818
 20
-367.8827821819
 30
0.0
 11
153.9766659276
 21
-365.0990714343
 31
0.0
  0
LINE
  5
7B5
330
1F
100
AcDbEntity
  8
0
  6
Continuous
 62
     7
370
    15
100
AcDbLine
 10
152.4315051971
 20
-369.8170307373
 30
0.0
 11
152.5934517622
 21
-365.679346001
 31
0.0
  0
LINE
  5
7B6
330
1F
100
AcDbEntity
  8
0
  6
Continuous
 62
     7
370
    15
100
AcDbLine
 10
150.3748122029
 20
-370.6580848369
 30
0.0
 11
152.4315051971
 21
-369.8170307373
 31
0.0
  0
LINE
  5
7B7
330
1F
100
AcDbEntity
  8
0
  6
Continuous
 62
     7
370
    15
100
AcDbLine
 10
150.3748122029
 20
-370.6580848369
 30
0.0
 11
147.3600162308
 21
-367.8194818506
 31
0.0
  0
LINE
  5
7B8
330
1F
100
AcDbEntity
  8
0
  6
Continuous
 62
     7
370
    15
100
AcDbLine
 10
145.7299286038
 20
-372.5087756136
 30
0.0
 11
145.9665511511
 21
-368.3746890836
 31
0.0
  0
LINE
  5
7B9
330
1F
100
AcDbEntity
  8
0
  6
Continuous
 62
     7
370
    15
100
AcDbLine
 10
143.6583863126
 20
-373.3125607879
 30
0.0
 11
145.7299286038
 21
-372.5087756136
 31
0.0
  0
LINE
  5
7BA
330
1F
100
AcDbEntity
  8
0
  6
Continuous
 62
     7
370
    15
100
AcDbLine
 10
143.6583863126
 20
-373.3125607879
 30
0.0
 11
140.6953302824
 21
-370.4199908875
 31
0.0
  0
LINE
  5
7BB
330
1F
100
AcDbEntity
  8
0
  6
Continuous
 62
     7
370
    15
100
AcDbLine
 10
138.980847133
 20
-375.0790904999
 30
0.0
 11
139.2920685285
 21
-370.9499498011
 31
0.0
  0
LINE
  5
7BC
330
1F
100
AcDbEntity
  8
0
  6
Continuous
 62
     7
370
    15
100
AcDbLine
 10
136.8951308238
 20
-375.845344732
 30
0.0
 11
138.980847133
 21
-375.0790904999
 31
0.0
  0
LINE
  5
7BD
330
1F
100
AcDbEntity
  8
0
  6
Continuous
 62
     7
370
    15
100
AcDbLine
 10
136.8951308238
 20
-375.845344732
 30
0.0
 11
133.9847806291
 21
-372.8997508341
 31
0.0
  0
LINE
  5
7BE
330
1F
100
AcDbEntity
  8
0
  6
Continuous
 62
     7
370
    15
100
AcDbLine
 10
132.1864608425
 20
-377.5271375278
 30
0.0
 11
132.5721796347
 21
-373.4042886729
 31
0.0
  0
LINE
  5
7BF
330
1F
100
AcDbEntity
  8
0
  6
Continuous
 62
     7
370
    15
100
AcDbLine
 10
130.0872504148
 20
-378.2556110351
 30
0.0
 11
132.1864608425
 21
-377.5271375278
 31
0.0
  0
LINE
  5
7C0
330
1F
100
AcDbEntity
  8
0
  6
Continuous
 62
     7
370
    15
100
AcDbLine
 10
130.0872504148
 20
-378.2556110351
 30
0.0
 11
127.2305547683
 21
-375.2579533411
 31
0.0
  0
LINE
  5
7C1
330
1F
100
AcDbEntity
  8
0
  6
Continuous
 62
     7
370
    15
100
AcDbLine
 10
125.3489845589
 20
-379.8521186858
 30
0.0
 11
125.8090750115
 21
-375.7369056363
 31
0.0
  0
LINE
  5
7C2
330
1F
100
AcDbEntity
  8
0
  6
Continuous
 62
     7
370
    15
100
AcDbLine
 10
123.2369643108
 20
-380.5425740012
 30
0.0
 11
125.3489845589
 21
-379.8521186858
 31
0.0
  0
LINE
  5
7C3
330
1F
100
AcDbEntity
  8
0
  6
Continuous
 62
     7
370
    15
100
AcDbLine
 10
123.2369643108
 20
-380.5425740012
 30
0.0
 11
120.4348544349
 21
-377.4938296842
 31
0.0
  0
LINE
  5
7C4
330
1F
100
AcDbEntity
  8
0
  6
Continuous
 62
     7
370
    15
100
AcDbLine
 10
118.4706471548
 20
-382.053276079
 30
0.0
 11
119.0049592881
 21
-377.9470403075
 31
0.0
  0
LINE
  5
7C5
330
1F
100
AcDbEntity
  8
0
  6
Continuous
 62
     7
370
    15
100
AcDbLine
 10
116.3465055604
 20
-382.7054881288
 30
0.0
 11
118.4706471548
 21
-382.053276079
 31
0.0
  0
LINE
  5
7C6
330
1F
100
AcDbEntity
  8
0
  6
Continuous
 62
     7
370
    15
100
AcDbLine
 10
116.3465055604
 20
-382.7054881288
 30
0.0
 11
113.5998948837
 21
-379.606651015
 31
0.0
  0
LINE
  5
7C7
330
1F
100
AcDbEntity
  8
0
  6
Continuous
 62
     7
370
    15
100
AcDbLine
 10
111.5536908229
 20
-384.1298921768
 30
0.0
 11
112.1620504625
 21
-380.0339722294
 31
0.0
  0
LINE
  5
7C8
330
1F
100
AcDbEntity
  8
0
  6
Continuous
 62
     7
370
    15
100
AcDbLine
 10
109.4181203074
 20
-384.7436483535
 30
0.0
 11
111.5536908229
 21
-384.1298921768
 31
0.0
  0
LINE
  5
7C9
330
1F
100
AcDbEntity
  8
0
  6
Continuous
 62
     7
370
    15
100
AcDbLine
 10
109.4181203074
 20
-384.7436483535
 30
0.0
 11
106.7279041671
 21
-381.5957285983
 31
0.0
  0
LINE
  5
7CA
330
1F
100
AcDbEntity
  8
0
  6
Continuous
 62
     7
370
    15
100
AcDbLine
 10
104.6003703448
 20
-386.0812900462
 30
0.0
 11
105.2825791783
 21
-381.9970211061
 31
0.0
  0
LINE
  5
7CB
330
1F
100
AcDbEntity
  8
0
  6
Continuous
 62
     7
370
    15
100
AcDbLine
 10
102.4540670592
 20
-386.6563902783
 30
0.0
 11
104.6003703448
 21
-386.0812900462
 31
0.0
  0
LINE
  5
7CC
330
1F
100
AcDbEntity
  8
0
  6
Continuous
 62
     7
370
    15
100
AcDbLine
 10
102.4540670592
 20
-386.6563902783
 30
0.0
 11
99.8211224087
 21
-383.460414037
 31
0.0
  0
LINE
  5
7CD
330
1F
100
AcDbEntity
  8
0
  6
Continuous
 62
     7
370
    15
100
AcDbLine
 10
97.6129523562
 20
-387.9068335726
 30
0.0
 11
98.3687879978
 21
-383.8355470253
 31
0.0
  0
LINE
  5
7CE
330
1F
100
AcDbEntity
  8
0
  6
Continuous
 62
     7
370
    15
100
AcDbLine
 10
95.4566159499
 20
-388.4430903896
 30
0.0
 11
97.6129523562
 21
-387.9068335726
 31
0.0
  0
LINE
  5
7CF
330
1F
100
AcDbEntity
  8
0
  6
Continuous
 62
     7
370
    15
100
AcDbLine
 10
95.4566159499
 20
-388.4430903896
 30
0.0
 11
92.8818010736
 21
-385.200099483
 31
0.0
  0
LINE
  5
7D0
330
1F
100
AcDbEntity
  8
0
  6
Continuous
 62
     7
370
    15
100
AcDbLine
 10
90.5937146076
 20
-389.6059276674
 30
0.0
 11
91.4229306709
 21
-385.5489506663
 31
0.0
  0
LINE
  5
7D1
330
1F
100
AcDbEntity
  8
0
  6
Continuous
 62
     7
370
    15
100
AcDbLine
 10
88.4280480007
 20
-390.1031662609
 30
0.0
 11
90.5937146076
 21
-389.6059276674
 31
0.0
  0
LINE
  5
7D2
330
1F
100
AcDbEntity
  8
0
  6
Continuous
 62
     7
370
    15
100
AcDbLine
 10
88.4280480007
 20
-390.1031662609
 30
0.0
 11
85.9122022339
 21
-386.8142178355
 31
0.0
  0
LINE
  5
7D3
330
1F
100
AcDbEntity
  8
0
  6
Continuous
 62
     7
370
    15
100
AcDbLine
 10
83.5449452222
 20
-391.178018462
 30
0.0
 11
84.4472714004
 21
-387.1366734958
 31
0.0
  0
LINE
  5
7D4
330
1F
100
AcDbEntity
  8
0
  6
Continuous
 62
     7
370
    15
100
AcDbLine
 10
81.3706543763
 20
-391.6360767426
 30
0.0
 11
83.5449452222
 21
-391.178018462
 31
0.0
  0
LINE
  5
7D5
330
1F
100
AcDbEntity
  8
0
  6
Continuous
 62
     7
370
    15
100
AcDbLine
 10
81.3706543763
 20
-391.6360767426
 30
0.0
 11
78.9145978316
 21
-388.3022429261
 31
0.0
  0
LINE
  5
7D6
330
1F
100
AcDbEntity
  8
0
  6
Continuous
 62
     7
370
    15
100
AcDbLine
 10
76.4689419499
 20
-392.6225934878
 30
0.0
 11
77.4440841036
 21
-388.5981979497
 31
0.0
  0
LINE
  5
7D7
330
1F
100
AcDbEntity
  8
0
  6
Continuous
 62
     7
370
    15
100
AcDbLine
 10
74.2867356379
 20
-393.0413221384
 30
0.0
 11
76.4689419499
 21
-392.6225934878
 31
0.0
  0
LINE
  5
7D8
330
1F
100
AcDbEntity
  8
0
  6
Continuous
 62
     7
370
    15
100
AcDbLine
 10
74.2867356379
 20
-393.0413221384
 30
0.0
 11
71.8912689377
 21
-389.6636896901
 31
0.0
  0
LINE
  5
7D9
330
1F
100
AcDbEntity
  8
0
  6
Continuous
 62
     7
370
    15
100
AcDbLine
 10
69.3680114182
 20
-393.939181844
 30
0.0
 11
70.4156516718
 21
-389.9330476018
 31
0.0
  0
LINE
  5
7DA
330
1F
100
AcDbEntity
  8
0
  6
Continuous
 62
     7
370
    15
100
AcDbLine
 10
67.1786009933
 20
-394.3184443677
 30
0.0
 11
69.3680114182
 21
-393.939181844
 31
0.0
  0
LINE
  5
7DB
330
1F
100
AcDbEntity
  8
0
  6
Continuous
 62
     7
370
    15
100
AcDbLine
 10
67.1786009933
 20
-394.3184443677
 30
0.0
 11
64.8445050092
 21
-390.8981143246
 31
0.0
  0
LINE
  5
7DC
330
1F
100
AcDbEntity
  8
0
  6
Continuous
 62
     7
370
    15
100
AcDbLine
 10
62.2444683806
 20
-395.1273543505
 30
0.0
 11
63.3642652254
 21
-391.1407873194
 31
0.0
  0
LINE
  5
7DD
330
1F
100
AcDbEntity
  8
0
  6
Continuous
 62
     7
370
    15
100
AcDbLine
 10
60.0485675442
 20
-395.4670271159
 30
0.0
 11
62.2444683806
 21
-395.1273543505
 31
0.0
  0
LINE
  5
7DE
330
1F
100
AcDbEntity
  8
0
  6
Continuous
 62
     7
370
    15
100
AcDbLine
 10
60.0485675442
 20
-395.4670271159
 30
0.0
 11
57.7766031421
 21
-392.0051144331
 31
0.0
  0
LINE
  5
7DF
330
1F
100
AcDbEntity
  8
0
  6
Continuous
 62
     7
370
    15
100
AcDbLine
 10
55.1006349614
 20
-396.1867236883
 30
0.0
 11
56.2922233673
 21
-392.2210234049
 31
0.0
  0
LINE
  5
7E0
330
1F
100
AcDbEntity
  8
0
  6
Continuous
 62
     7
370
    15
100
AcDbLine
 10
52.8989595308
 20
-396.4866959692
 30
0.0
 11
55.1006349614
 21
-396.1867236883
 31
0.0
  0
LINE
  5
7E1
330
1F
100
AcDbEntity
  8
0
  6
Continuous
 62
     7
370
    15
100
AcDbLine
 10
52.8989595308
 20
-396.4866959692
 30
0.0
 11
50.6898673233
 21
-392.9843291572
 31
0.0
  0
LINE
  5
7E2
330
1F
100
AcDbEntity
  8
0
  6
Continuous
 62
     7
370
    15
100
AcDbLine
 10
47.9388398994
 20
-397.1169445253
 30
0.0
 11
49.2018314339
 21
-393.173403724
 31
0.0
  0
LINE
  5
7E3
330
1F
100
AcDbEntity
  8
0
  6
Continuous
 62
     7
370
    15
100
AcDbLine
 10
45.7321075744
 20
-397.377118537
 30
0.0
 11
47.9388398994
 21
-397.1169445253
 31
0.0
  0
LINE
  5
7E4
330
1F
100
AcDbEntity
  8
0
  6
Continuous
 62
     7
370
    15
100
AcDbLine
 10
45.7321075744
 20
-397.377118537
 30
0.0
 11
43.5866076787
 21
-393.8354392934
 31
0.0
  0
LINE
  5
7E5
330
1F
100
AcDbEntity
  8
0
  6
Continuous
 62
     7
370
    15
100
AcDbLine
 10
40.7614177886
 20
-397.9177136292
 30
0.0
 11
42.0954007429
 21
-393.9976178211
 31
0.0
  0
LINE
  5
7E6
330
1F
100
AcDbEntity
  8
0
  6
Continuous
 62
     7
370
    15
100
AcDbLine
 10
38.5503479172
 20
-398.1380045606
 30
0.0
 11
40.7614177886
 21
-397.9177136292
 31
0.0
  0
LINE
  5
7E7
330
1F
100
AcDbEntity
  8
0
  6
Continuous
 62
     7
370
    15
100
AcDbLine
 10
38.5503479172
 20
-398.1380045606
 30
0.0
 11
36.4691397209
 21
-394.5581673979
 31
0.0
  0
LINE
  5
7E8
330
1F
100
AcDbEntity
  8
0
  6
Continuous
 62
     7
370
    15
100
AcDbLine
 10
33.5707083168
 20
-398.5887699661
 30
0.0
 11
34.9752478408
 21
-394.6933970196
 31
0.0
  0
LINE
  5
7E9
330
1F
100
AcDbEntity
  8
0
  6
Continuous
 62
     7
370
    15
100
AcDbLine
 10
31.3560216611
 20
-398.769106007
 30
0.0
 11
33.5707083168
 21
-398.5887699661
 31
0.0
  0
LINE
  5
7EA
330
1F
100
AcDbEntity
  8
0
  6
Continuous
 62
     7
370
    15
100
AcDbLine
 10
31.3560216611
 20
-398.769106007
 30
0.0
 11
29.3397835942
 21
-395.1522778766
 31
0.0
  0
LINE
  5
7EB
330
1F
100
AcDbEntity
  8
0
  6
Continuous
 62
     7
370
    15
100
AcDbLine
 10
26.3690555035
 20
-399.129894786
 30
0.0
 11
27.8436937469
 21
-395.2605145103
 31
0.0
  0
LINE
  5
7EC
330
1F
100
AcDbEntity
  8
0
  6
Continuous
 62
     7
370
    15
100
AcDbLine
 10
24.1514740044
 20
-399.2702171505
 30
0.0
 11
26.3690555035
 21
-399.129894786
 31
0.0
  0
LINE
  5
7ED
330
1F
100
AcDbEntity
  8
0
  6
Continuous
 62
     7
370
    15
100
AcDbLine
 10
24.1514740044
 20
-399.2702171505
 30
0.0
 11
22.200863318
 21
-395.6175770619
 31
0.0
  0
LINE
  5
7EE
330
1F
100
AcDbEntity
  8
0
  6
Continuous
 62
     7
370
    15
100
AcDbLine
 10
19.1588069352
 20
-399.5409116934
 30
0.0
 11
20.7030631972
 21
-395.6987854248
 31
0.0
  0
LINE
  5
7EF
330
1F
100
AcDbEntity
  8
0
  6
Continuous
 62
     7
370
    15
100
AcDbLine
 10
16.9390534776
 20
-399.6411746396
 30
0.0
 11
19.1588069352
 21
-399.5409116934
 31
0.0
  0
LINE
  5
7F0
330
1F
100
AcDbEntity
  8
0
  6
Continuous
 62
     7
370
    15
100
AcDbLine
 10
16.9390534776
 20
-399.6411746396
 30
0.0
 11
15.0547060294
 21
-395.9539132762
 31
0.0
  0
LINE
  5
7F1
330
1F
100
AcDbEntity
  8
0
  6
Continuous
 62
     7
370
    15
100
AcDbLine
 10
11.9423130006
 20
-399.8216867057
 30
0.0
 11
13.5556838863
 21
-396.0080668961
 31
0.0
  0
LINE
  5
7F2
330
1F
100
AcDbEntity
  8
0
  6
Continuous
 62
     7
370
    15
100
AcDbLine
 10
9.7211111772
 20
-399.8818575498
 30
0.0
 11
11.9423130006
 21
-399.8216867057
 31
0.0
  0
LINE
  5
7F3
330
1F
100
AcDbEntity
  8
0
  6
Continuous
 62
     7
370
    15
100
AcDbLine
 10
9.7211111772
 20
-399.8818575498
 30
0.0
 11
7.9036412247
 21
-396.1611768811
 31
0.0
  0
LINE
  5
7F4
330
1F
100
AcDbEntity
  8
0
  6
Continuous
 62
     7
370
    15
100
AcDbLine
 10
4.7219261244
 20
-399.9721282961
 30
0.0
 11
6.4038857089
 21
-396.1882581049
 31
0.0
  0
LINE
  5
7F5
330
1F
100
AcDbEntity
  8
0
  6
Continuous
 62
     7
370
    15
100
AcDbLine
 10
2.5
 20
-399.9921874237
 30
0.0
 11
4.7219261244
 21
-399.9721282961
 31
0.0
  0
LINE
  5
7F6
330
1F
100
AcDbEntity
  8
0
  6
Continuous
 62
     7
370
    15
100
AcDbLine
 10
2.5
 20
-399.9921874237
 30
0.0
 11
0.75
 21
-396.2393003128
 31
0.0
  0
LINE
  5
7F7
330
1F
100
AcDbEntity
  8
0
  6
Continuous
 62
     7
370
    15
100
AcDbLine
 10
-2.5
 20
-399.9921874237
 30
0.0
 11
-0.75
 21
-396.2393003128
 31
0.0
  0
LINE
  5
7F8
330
1F
100
AcDbEntity
  8
0
  6
Continuous
 62
     7
370
    15
100
AcDbLine
 10
-4.7219261244
 20
-399.9721282961
 30
0.0
 11
-2.5
 21
-399.9921874237
 31
0.0
  0
LINE
  5
7F9
330
1F
100
AcDbEntity
  8
0
  6
Continuous
 62
     7
370
    15
100
AcDbLine
 10
-4.7219261244
 20
-399.9721282961
 30
0.0
 11
-6.4038857089
 21
-396.1882581049
 31
0.0
  0
LINE
  5
7FA
330
1F
100
AcDbEntity
  8
0
  6
Continuous
 62
     7
370
    15
100
AcDbLine
 10
-9.7211111772
 20
-399.8818575498
 30
0.0
 11
-7.9036412247
 21
-396.1611768811
 31
0.0
  0
LINE
  5
7FB
330
1F
100
AcDbEntity
  8
0
  6
Continuous
 62
     7
370
    15
100
AcDbLine
 10
-11.9423130006
 20
-399.8216867057
 30
0.0
 11
-9.7211111772
 21
-399.8818575498
 31
0.0
  0
LINE
  5
7FC
330
1F
100
AcDbEntity
  8
0
  6
Continuous
 62
     7
370
    15
100
AcDbLine
 10
-11.9423130006
 20
-399.8216867057
 30
0.0
 11
-13.5556838863
 21
-396.0080668961
 31
0.0
  0
LINE
  5
7FD
330
1F
100
AcDbEntity
  8
0
  6
Continuous
 62
     7
370
    15
100
AcDbLine
 10
-16.9390534776
 20
-399.6411746396
 30
0.0
 11
-15.0547060294
 21
-395.9539132762
 31
0.0
  0
LINE
  5
7FE
330
1F
100
AcDbEntity
  8
0
  6
Continuous
 62
     7
370
    15
100
AcDbLine
 10
-19.1588069352
 20
-399.5409116934
 30
0.0
 11
-16.9390534776
 21
-399.6411746396
 31
0.0
  0
LINE
  5
7FF
330
1F
100
AcDbEntity
  8
0
  6
Continuous
 62
     7
370
    15
100
AcDbLine
 10
-19.1588069352
 20
-399.5409116934
 30
0.0
 11
-20.7030631972
 21
-395.6987854248
 31
0.0
  0
LINE
  5
800
330
1F
100
AcDbEntity
  8
0
  6
Continuous
 62
     7
370
    15
100
AcDbLine
 10
-24.1514740044
 20
-399.2702171505
 30
0.0
 11
-22.200863318
 21
-395.6175770619
 31
0.0
  0
LINE
  5
801
330
1F
100
AcDbEntity
  8
0
  6
Continuous
 62
     7
370
    15
100
AcDbLine
 10
-26.3690555035
 20
-399.129894786
 30
0.0
 11
-24.1514740044
 21
-399.2702171505
 31
0.0
  0
LINE
  5
802
330
1F
100
AcDbEntity
  8
0
  6
Continuous
 62
     7
370
    15
100
AcDbLine
 10
-26.3690555035
 20
-399.129894786
 30
0.0
 11
-27.8436937469
 21
-395.2605145103
 31
0.0
  0
LINE
  5
803
330
1F
100
AcDbEntity
  8
0
  6
Continuous
 62
     7
370
    15
100
AcDbLine
 10
-31.3560216611
 20
-398.769106007
 30
0.0
 11
-29.3397835942
 21
-395.1522778766
 31
0.0
  0
LINE
  5
804
330
1F
100
AcDbEntity
  8
0
  6
Continuous
 62
     7
370
    15
100
AcDbLine
 10
-33.5707083168
 20
-398.5887699661
 30
0.0
 11
-31.3560216611
 21
-398.769106007
 31
0.0
  0
LINE
  5
805
330
1F
100
AcDbEntity
  8
0
  6
Continuous
 62
     7
370
    15
100
AcDbLine
 10
-33.5707083168
 20
-398.5887699661
 30
0.0
 11
-34.9752478408
 21
-394.6933970196
 31
0.0
  0
LINE
  5
806
330
1F
100
AcDbEntity
  8
0
  6
Continuous
 62
     7
370
    15
100
AcDbLine
 10
-38.5503479172
 20
-398.1380045606
 30
0.0
 11
-36.4691397209
 21
-394.5581673979
 31
0.0
  0
LINE
  5
807
330
1F
100
AcDbEntity
  8
0
  6
Continuous
 62
     7
370
    15
100
AcDbLine
 10
-40.7614177886
 20
-397.9177136292
 30
0.0
 11
-38.5503479172
 21
-398.1380045606
 31
0.0
  0
LINE
  5
808
330
1F
100
AcDbEntity
  8
0
  6
Continuous
 62
     7
370
    15
100
AcDbLine
 10
-40.7614177886
 20
-397.9177136292
 30
0.0
 11
-42.0954007429
 21
-393.9976178211
 31
0.0
  0
LINE
  5
809
330
1F
100
AcDbEntity
  8
0
  6
Continuous
 62
     7
370
    15
100
AcDbLine
 10
-45.7321075744
 20
-397.377118537
 30
0.0
 11
-43.5866076787
 21
-393.8354392934
 31
0.0
  0
LINE
  5
80A
330
1F
100
AcDbEntity
  8
0
  6
Continuous
 62
     7
370
    15
100
AcDbLine
 10
-47.9388398994
 20
-397.1169445253
 30
0.0
 11
-45.7321075744
 21
-397.377118537
 31
0.0
  0
LINE
  5
80B
330
1F
100
AcDbEntity
  8
0
  6
Continuous
 62
     7
370
    15
100
AcDbLine
 10
-47.9388398994
 20
-397.1169445253
 30
0.0
 11
-49.2018314339
 21
-393.173403724
 31
0.0
  0
LINE
  5
80C
330
1F
100
AcDbEntity
  8
0
  6
Continuous
 62
     7
370
    15
100
AcDbLine
 10
-52.8989595308
 20
-396.4866959692
 30
0.0
 11
-50.6898673233
 21
-392.9843291572
 31
0.0
  0
LINE
  5
80D
330
1F
100
AcDbEntity
  8
0
  6
Continuous
 62
     7
370
    15
100
AcDbLine
 10
-55.1006349614
 20
-396.1867236883
 30
0.0
 11
-52.8989595308
 21
-396.4866959692
 31
0.0
  0
LINE
  5
80E
330
1F
100
AcDbEntity
  8
0
  6
Continuous
 62
     7
370
    15
100
AcDbLine
 10
-55.1006349614
 20
-396.1867236883
 30
0.0
 11
-56.2922233673
 21
-392.2210234049
 31
0.0
  0
LINE
  5
80F
330
1F
100
AcDbEntity
  8
0
  6
Continuous
 62
     7
370
    15
100
AcDbLine
 10
-60.0485675442
 20
-395.4670271159
 30
0.0
 11
-57.7766031422
 21
-392.0051144331
 31
0.0
  0
LINE
  5
810
330
1F
100
AcDbEntity
  8
0
  6
Continuous
 62
     7
370
    15
100
AcDbLine
 10
-62.2444683806
 20
-395.1273543505
 30
0.0
 11
-60.0485675442
 21
-395.4670271159
 31
0.0
  0
LINE
  5
811
330
1F
100
AcDbEntity
  8
0
  6
Continuous
 62
     7
370
    15
100
AcDbLine
 10
-62.2444683806
 20
-395.1273543505
 30
0.0
 11
-63.3642652254
 21
-391.1407873194
 31
0.0
  0
LINE
  5
812
330
1F
100
AcDbEntity
  8
0
  6
Continuous
 62
     7
370
    15
100
AcDbLine
 10
-67.1786009933
 20
-394.3184443677
 30
0.0
 11
-64.8445050092
 21
-390.8981143246
 31
0.0
  0
LINE
  5
813
330
1F
100
AcDbEntity
  8
0
  6
Continuous
 62
     7
370
    15
100
AcDbLine
 10
-69.3680114182
 20
-393.9391818439
 30
0.0
 11
-67.1786009933
 21
-394.3184443677
 31
0.0
  0
LINE
  5
814
330
1F
100
AcDbEntity
  8
0
  6
Continuous
 62
     7
370
    15
100
AcDbLine
 10
-69.3680114182
 20
-393.9391818439
 30
0.0
 11
-70.4156516718
 21
-389.9330476018
 31
0.0
  0
LINE
  5
815
330
1F
100
AcDbEntity
  8
0
  6
Continuous
 62
     7
370
    15
100
AcDbLine
 10
-74.2867356379
 20
-393.0413221384
 30
0.0
 11
-71.8912689377
 21
-389.6636896901
 31
0.0
  0
LINE
  5
816
330
1F
100
AcDbEntity
  8
0
  6
Continuous
 62
     7
370
    15
100
AcDbLine
 10
-76.4689419499
 20
-392.6225934878
 30
0.0
 11
-74.2867356379
 21
-393.0413221384
 31
0.0
  0
LINE
  5
817
330
1F
100
AcDbEntity
  8
0
  6
Continuous
 62
     7
370
    15
100
AcDbLine
 10
-76.4689419499
 20
-392.6225934878
 30
0.0
 11
-77.4440841036
 21
-388.5981979497
 31
0.0
  0
LINE
  5
818
330
1F
100
AcDbEntity
  8
0
  6
Continuous
 62
     7
370
    15
100
AcDbLine
 10
-81.3706543763
 20
-391.6360767426
 30
0.0
 11
-78.9145978316
 21
-388.3022429261
 31
0.0
  0
LINE
  5
819
330
1F
100
AcDbEntity
  8
0
  6
Continuous
 62
     7
370
    15
100
AcDbLine
 10
-83.5449452222
 20
-391.178018462
 30
0.0
 11
-81.3706543763
 21
-391.6360767426
 31
0.0
  0
LINE
  5
81A
330
1F
100
AcDbEntity
  8
0
  6
Continuous
 62
     7
370
    15
100
AcDbLine
 10
-83.5449452222
 20
-391.178018462
 30
0.0
 11
-84.4472714004
 21
-387.1366734958
 31
0.0
  0
LINE
  5
81B
330
1F
100
AcDbEntity
  8
0
  6
Continuous
 62
     7
370
    15
100
AcDbLine
 10
-88.4280480007
 20
-390.1031662609
 30
0.0
 11
-85.9122022339
 21
-386.8142178355
 31
0.0
  0
LINE
  5
81C
330
1F
100
AcDbEntity
  8
0
  6
Continuous
 62
     7
370
    15
100
AcDbLine
 10
-90.5937146076
 20
-389.6059276674
 30
0.0
 11
-88.4280480007
 21
-390.1031662609
 31
0.0
  0
LINE
  5
81D
330
1F
100
AcDbEntity
  8
0
  6
Continuous
 62
     7
370
    15
100
AcDbLine
 10
-90.5937146076
 20
-389.6059276674
 30
0.0
 11
-91.4229306709
 21
-385.5489506663
 31
0.0
  0
LINE
  5
81E
330
1F
100
AcDbEntity
  8
0
  6
Continuous
 62
     7
370
    15
100
AcDbLine
 10
-95.4566159499
 20
-388.4430903896
 30
0.0
 11
-92.8818010736
 21
-385.200099483
 31
0.0
  0
LINE
  5
81F
330
1F
100
AcDbEntity
  8
0
  6
Continuous
 62
     7
370
    15
100
AcDbLine
 10
-97.6129523562
 20
-387.9068335726
 30
0.0
 11
-95.4566159499
 21
-388.4430903896
 31
0.0
  0
LINE
  5
820
330
1F
100
AcDbEntity
  8
0
  6
Continuous
 62
     7
370
    15
100
AcDbLine
 10
-97.6129523562
 20
-387.9068335726
 30
0.0
 11
-98.3687879978
 21
-383.8355470253
 31
0.0
  0
LINE
  5
821
330
1F
100
AcDbEntity
  8
0
  6
Continuous
 62
     7
370
    15
100
AcDbLine
 10
-102.4540670592
 20
-386.6563902783
 30
0.0
 11
-99.8211224087
 21
-383.460414037
 31
0.0
  0
LINE
  5
822
330
1F
100
AcDbEntity
  8
0
  6
Continuous
 62
     7
370
    15
100
AcDbLine
 10
-104.6003703448
 20
-386.0812900462
 30
0.0
 11
-102.4540670592
 21
-386.6563902783
 31
0.0
  0
LINE
  5
823
330
1F
100
AcDbEntity
  8
0
  6
Continuous
 62
     7
370
    15
100
AcDbLine
 10
-104.6003703448
 20
-386.0812900462
 30
0.0
 11
-105.2825791783
 21
-381.9970211061
 31
0.0
  0
LINE
  5
824
330
1F
100
AcDbEntity
  8
0
  6
Continuous
 62
     7
370
    15
100
AcDbLine
 10
-109.4181203074
 20
-384.7436483535
 30
0.0
 11
-106.7279041671
 21
-381.5957285983
 31
0.0
  0
LINE
  5
825
330
1F
100
AcDbEntity
  8
0
  6
Continuous
 62
     7
370
    15
100
AcDbLine
 10
-111.5536908229
 20
-384.1298921768
 30
0.0
 11
-109.4181203074
 21
-384.7436483535
 31
0.0
  0
LINE
  5
826
330
1F
100
AcDbEntity
  8
0
  6
Continuous
 62
     7
370
    15
100
AcDbLine
 10
-111.5536908229
 20
-384.1298921768
 30
0.0
 11
-112.1620504625
 21
-380.0339722294
 31
0.0
  0
LINE
  5
827
330
1F
100
AcDbEntity
  8
0
  6
Continuous
 62
     7
370
    15
100
AcDbLine
 10
-116.3465055604
 20
-382.7054881288
 30
0.0
 11
-113.5998948837
 21
-379.606651015
 31
0.0
  0
LINE
  5
828
330
1F
100
AcDbEntity
  8
0
  6
Continuous
 62
     7
370
    15
100
AcDbLine
 10
-118.4706471548
 20
-382.053276079
 30
0.0
 11
-116.3465055604
 21
-382.7054881288
 31
0.0
  0
LINE
  5
829
330
1F
100
AcDbEntity
  8
0
  6
Continuous
 62
     7
370
    15
100
AcDbLine
 10
-118.4706471548
 20
-382.053276079
 30
0.0
 11
-119.0049592881
 21
-377.9470403075
 31
0.0
  0
LINE
  5
82A
330
1F
100
AcDbEntity
  8
0
  6
Continuous
 62
     7
370
    15
100
AcDbLine
 10
-123.2369643108
 20
-380.5425740012
 30
0.0
 11
-120.4348544349
 21
-377.4938296842
 31
0.0
  0
LINE
  5
82B
330
1F
100
AcDbEntity
  8
0
  6
Continuous
 62
     7
370
    15
100
AcDbLine
 10
-125.3489845589
 20
-379.8521186858
 30
0.0
 11
-123.2369643108
 21
-380.5425740012
 31
0.0
  0
LINE
  5
82C
330
1F
100
AcDbEntity
  8
0
  6
Continuous
 62
     7
370
    15
100
AcDbLine
 10
-125.3489845589
 20
-379.8521186858
 30
0.0
 11
-125.8090750115
 21
-375.7369056363
 31
0.0
  0
LINE
  5
82D
330
1F
100
AcDbEntity
  8
0
  6
Continuous
 62
     7
370
    15
100
AcDbLine
 10
-130.0872504148
 20
-378.2556110351
 30
0.0
 11
-127.2305547683
 21
-375.2579533411
 31
0.0
  0
LINE
  5
82E
330
1F
100
AcDbEntity
  8
0
  6
Continuous
 62
     7
370
    15
100
AcDbLine
 10
-132.1864608426
 20
-377.5271375278
 30
0.0
 11
-130.0872504148
 21
-378.2556110351
 31
0.0
  0
LINE
  5
82F
330
1F
100
AcDbEntity
  8
0
  6
Continuous
 62
     7
370
    15
100
AcDbLine
 10
-132.1864608426
 20
-377.5271375278
 30
0.0
 11
-132.5721796347
 21
-373.4042886729
 31
0.0
  0
LINE
  5
830
330
1F
100
AcDbEntity
  8
0
  6
Continuous
 62
     7
370
    15
100
AcDbLine
 10
-136.8951308238
 20
-375.845344732
 30
0.0
 11
-133.9847806291
 21
-372.8997508341
 31
0.0
  0
LINE
  5
831
330
1F
100
AcDbEntity
  8
0
  6
Continuous
 62
     7
370
    15
100
AcDbLine
 10
-138.980847133
 20
-375.0790904998
 30
0.0
 11
-136.8951308238
 21
-375.845344732
 31
0.0
  0
LINE
  5
832
330
1F
100
AcDbEntity
  8
0
  6
Continuous
 62
     7
370
    15
100
AcDbLine
 10
-138.980847133
 20
-375.0790904998
 30
0.0
 11
-139.2920685285
 21
-370.9499498011
 31
0.0
  0
LINE
  5
833
330
1F
100
AcDbEntity
  8
0
  6
Continuous
 62
     7
370
    15
100
AcDbLine
 10
-143.6583863126
 20
-373.3125607879
 30
0.0
 11
-140.6953302824
 21
-370.4199908875
 31
0.0
  0
LINE
  5
834
330
1F
100
AcDbEntity
  8
0
  6
Continuous
 62
     7
370
    15
100
AcDbLine
 10
-145.7299286038
 20
-372.5087756136
 30
0.0
 11
-143.6583863126
 21
-373.3125607879
 31
0.0
  0
LINE
  5
835
330
1F
100
AcDbEntity
  8
0
  6
Continuous
 62
     7
370
    15
100
AcDbLine
 10
-145.7299286038
 20
-372.5087756136
 30
0.0
 11
-145.9665511511
 21
-368.3746890836
 31
0.0
  0
LINE
  5
836
330
1F
100
AcDbEntity
  8
0
  6
Continuous
 62
     7
370
    15
100
AcDbLine
 10
-150.3748122029
 20
-370.6580848369
 30
0.0
 11
-147.3600162308
 21
-367.8194818506
 31
0.0
  0
LINE
  5
837
330
1F
100
AcDbEntity
  8
0
  6
Continuous
 62
     7
370
    15
100
AcDbLine
 10
-152.4315051971
 20
-369.8170307373
 30
0.0
 11
-150.3748122029
 21
-370.6580848369
 31
0.0
  0
LINE
  5
838
330
1F
100
AcDbEntity
  8
0
  6
Continuous
 62
     7
370
    15
100
AcDbLine
 10
-152.4315051971
 20
-369.8170307373
 30
0.0
 11
-152.5934517622
 21
-365.679346001
 31
0.0
  0
LINE
  5
839
330
1F
100
AcDbEntity
  8
0
  6
Continuous
 62
     7
370
    15
100
AcDbLine
 10
-157.0422190818
 20
-367.8827821819
 30
0.0
 11
-153.9766659276
 21
-365.0990714343
 31
0.0
  0
LINE
  5
83A
330
1F
100
AcDbEntity
  8
0
  6
Continuous
 62
     7
370
    15
100
AcDbLine
 10
-159.0833923405
 20
-367.0047333229
 30
0.0
 11
-157.0422190818
 21
-367.8827821819
 31
0.0
  0
LINE
  5
83B
330
1F
100
AcDbEntity
  8
0
  6
Continuous
 62
     7
370
    15
100
AcDbLine
 10
-159.0833923405
 20
-367.0047333229
 30
0.0
 11
-159.1706101322
 21
-362.8647991781
 31
0.0
  0
LINE
  5
83C
330
1F
100
AcDbEntity
  8
0
  6
Continuous
 62
     7
370
    15
100
AcDbLine
 10
-163.6584335154
 20
-364.987557513
 30
0.0
 11
-160.5431224847
 21
-362.2596464351
 31
0.0
  0
LINE
  5
83D
330
1F
100
AcDbEntity
  8
0
  6
Continuous
 62
     7
370
    15
100
AcDbLine
 10
-165.6834216593
 20
-364.0728001201
 30
0.0
 11
-163.6584335154
 21
-364.987557513
 31
0.0
  0
LINE
  5
83E
330
1F
100
AcDbEntity
  8
0
  6
Continuous
 62
     7
370
    15
100
AcDbLine
 10
-165.6834216593
 20
-364.0728001201
 30
0.0
 11
-165.6958822465
 21
-359.9319660977
 31
0.0
  0
LINE
  5
83F
330
1F
100
AcDbEntity
  8
0
  6
Continuous
 62
     7
370
    15
100
AcDbLine
 10
-170.2212987576
 20
-361.9733546123
 30
0.0
 11
-167.057245376
 21
-359.3021324454
 31
0.0
  0
LINE
  5
840
330
1F
100
AcDbEntity
  8
0
  6
Continuous
 62
     7
370
    15
100
AcDbLine
 10
-172.2294416834
 20
-361.022186877
 30
0.0
 11
-170.2212987576
 21
-361.9733546123
 31
0.0
  0
LINE
  5
841
330
1F
100
AcDbEntity
  8
0
  6
Continuous
 62
     7
370
    15
100
AcDbLine
 10
-172.2294416834
 20
-361.022186877
 30
0.0
 11
-172.1671410042
 21
-356.8818028015
 31
0.0
  0
LINE
  5
842
330
1F
100
AcDbEntity
  8
0
  6
Continuous
 62
     7
370
    15
100
AcDbLine
 10
-176.7286754532
 20
-358.8411560462
 30
0.0
 11
-173.5169111351
 21
-356.2274935523
 31
0.0
  0
LINE
  5
843
330
1F
100
AcDbEntity
  8
0
  6
Continuous
 62
     7
370
    15
100
AcDbLine
 10
-178.7193185486
 20
-357.8538880291
 30
0.0
 11
-176.7286754532
 21
-358.8411560462
 31
0.0
  0
LINE
  5
844
330
1F
100
AcDbEntity
  8
0
  6
Continuous
 62
     7
370
    15
100
AcDbLine
 10
-178.7193185486
 20
-357.8538880291
 30
0.0
 11
-178.5822769116
 21
-353.7153035782
 31
0.0
  0
LINE
  5
845
330
1F
100
AcDbEntity
  8
0
  6
Continuous
 62
     7
370
    15
100
AcDbLine
 10
-183.1784423346
 20
-355.5919828453
 30
0.0
 11
-179.9200140475
 21
-353.0367320231
 31
0.0
  0
LINE
  5
846
330
1F
100
AcDbEntity
  8
0
  6
Continuous
 62
     7
370
    15
100
AcDbLine
 10
-185.1509366921
 20
-354.5689363749
 30
0.0
 11
-183.1784423346
 21
-355.5919828453
 31
0.0
  0
LINE
  5
847
330
1F
100
AcDbEntity
  8
0
  6
Continuous
 62
     7
370
    15
100
AcDbLine
 10
-185.1509366921
 20
-354.5689363749
 30
0.0
 11
-184.9391987702
 21
-350.4335006398
 31
0.0
  0
LINE
  5
848
330
1F
100
AcDbEntity
  8
0
  6
Continuous
 62
     7
370
    15
100
AcDbLine
 10
-189.5684969144
 20
-352.2268941714
 30
0.0
 11
-186.2644668368
 21
-349.7308879787
 31
0.0
  0
LINE
  5
849
330
1F
100
AcDbEntity
  8
0
  6
Continuous
 62
     7
370
    15
100
AcDbLine
 10
-191.5221995424
 20
-351.1684027392
 30
0.0
 11
-189.5684969144
 21
-352.2268941714
 31
0.0
  0
LINE
  5
84A
330
1F
100
AcDbEntity
  8
0
  6
Continuous
 62
     7
370
    15
100
AcDbLine
 10
-191.5221995424
 20
-351.1684027392
 30
0.0
 11
-191.2358343575
 21
-347.0374637845
 31
0.0
  0
LINE
  5
84B
330
1F
100
AcDbEntity
  8
0
  6
Continuous
 62
     7
370
    15
100
AcDbLine
 10
-195.8967561695
 20
-348.7469869723
 30
0.0
 11
-192.5482013457
 21
-346.3110390544
 31
0.0
  0
LINE
  5
84C
330
1F
100
AcDbEntity
  8
0
  6
Continuous
 62
     7
370
    15
100
AcDbLine
 10
-197.8310302024
 20
-347.6533956242
 30
0.0
 11
-195.8967561695
 21
-348.7469869723
 31
0.0
  0
LINE
  5
84D
330
1F
100
AcDbEntity
  8
0
  6
Continuous
 62
     7
370
    15
100
AcDbLine
 10
-197.8310302024
 20
-347.6533956242
 30
0.0
 11
-197.4701311036
 21
-343.5283000487
 31
0.0
  0
LINE
  5
84E
330
1F
100
AcDbEntity
  8
0
  6
Continuous
 62
     7
370
    15
100
AcDbLine
 10
-202.1611572213
 20
-345.1533956242
 30
0.0
 11
-198.7691692092
 21
-342.7783000487
 31
0.0
  0
LINE
  5
84F
330
1F
100
AcDbEntity
  8
0
  6
Continuous
 62
     7
370
    15
100
AcDbLine
 10
-204.0753721265
 20
-344.0250608479
 30
0.0
 11
-202.1611572213
 21
-345.1533956242
 31
0.0
  0
LINE
  5
850
330
1F
100
AcDbEntity
  8
0
  6
Continuous
 62
     7
370
    15
100
AcDbLine
 10
-204.0753721265
 20
-344.0250608479
 30
0.0
 11
-203.6400567593
 21
-339.9071533455
 31
0.0
  0
LINE
  5
851
330
1F
100
AcDbEntity
  8
0
  6
Continuous
 62
     7
370
    15
100
AcDbLine
 10
-208.3596580074
 20
-341.447291562
 30
0.0
 11
-204.9253425235
 21
-339.1338225598
 31
0.0
  0
LINE
  5
852
330
1F
100
AcDbEntity
  8
0
  6
Continuous
 62
     7
370
    15
100
AcDbLine
 10
-210.2531897914
 20
-340.2845811708
 30
0.0
 11
-208.3596580074
 21
-341.447291562
 31
0.0
  0
LINE
  5
853
330
1F
100
AcDbEntity
  8
0
  6
Continuous
 62
     7
370
    15
100
AcDbLine
 10
-210.2531897914
 20
-340.2845811708
 30
0.0
 11
-209.7436000592
 21
-336.1752040924
 31
0.0
  0
LINE
  5
854
330
1F
100
AcDbEntity
  8
0
  6
Continuous
 62
     7
370
    15
100
AcDbLine
 10
-214.4902379474
 20
-337.6298828973
 30
0.0
 11
-211.0147145061
 21
-335.3787946104
 31
0.0
  0
LINE
  5
855
330
1F
100
AcDbEntity
  8
0
  6
Continuous
 62
     7
370
    15
100
AcDbLine
 10
-216.3624693588
 20
-336.4331759101
 30
0.0
 11
-214.4902379474
 21
-337.6298828973
 31
0.0
  0
LINE
  5
856
330
1F
100
AcDbEntity
  8
0
  6
Continuous
 62
     7
370
    15
100
AcDbLine
 10
-216.3624693588
 20
-336.4331759101
 30
0.0
 11
-215.7787713773
 21
-332.3336688259
 31
0.0
  0
LINE
  5
857
330
1F
100
AcDbEntity
  8
0
  6
Continuous
 62
     7
370
    15
100
AcDbLine
 10
-220.5508986019
 20
-333.7024140246
 30
0.0
 11
-217.0353001503
 21
-331.5144402603
 31
0.0
  0
LINE
  5
858
330
1F
100
AcDbEntity
  8
0
  6
Continuous
 62
     7
370
    15
100
AcDbLine
 10
-222.4012193328
 20
-332.4721005427
 30
0.0
 11
-220.5508986019
 21
-333.7024140246
 31
0.0
  0
LINE
  5
859
330
1F
100
AcDbEntity
  8
0
  6
Continuous
 62
     7
370
    15
100
AcDbLine
 10
-222.4012193328
 20
-332.4721005427
 30
0.0
 11
-221.7436033752
 21
-328.3837998053
 31
0.0
  0
LINE
  5
85A
330
1F
100
AcDbEntity
  8
0
  6
Continuous
 62
     7
370
    15
100
AcDbLine
 10
-226.5396643236
 20
-329.6661652159
 30
0.0
 11
-222.9851368724
 21
-327.5420192073
 31
0.0
  0
LINE
  5
85B
330
1F
100
AcDbEntity
  8
0
  6
Continuous
 62
     7
370
    15
100
AcDbLine
 10
-228.3674712085
 20
-328.4026462954
 30
0.0
 11
-226.5396643236
 21
-329.6661652159
 31
0.0
  0
LINE
  5
85C
330
1F
100
AcDbEntity
  8
0
  6
Continuous
 62
     7
370
    15
100
AcDbLine
 10
-228.3674712085
 20
-328.4026462954
 30
0.0
 11
-227.6361516436
 21
-324.3268846045
 31
0.0
  0
LINE
  5
85D
330
1F
100
AcDbEntity
  8
0
  6
Continuous
 62
     7
370
    15
100
AcDbLine
 10
-232.4545829013
 20
-325.5224522029
 30
0.0
 11
-228.8622851515
 21
-323.4628263768
 31
0.0
  0
LINE
  5
85E
330
1F
100
AcDbEntity
  8
0
  6
Continuous
 62
     7
370
    15
100
AcDbLine
 10
-234.2592801138
 20
-324.2261397244
 30
0.0
 11
-232.4545829013
 21
-325.5224522029
 31
0.0
  0
LINE
  5
85F
330
1F
100
AcDbEntity
  8
0
  6
Continuous
 62
     7
370
    15
100
AcDbLine
 10
-234.2592801138
 20
-324.2261397244
 30
0.0
 11
-233.4544953364
 21
-320.1642456921
 31
0.0
  0
LINE
  5
860
330
1F
100
AcDbEntity
  8
0
  6
Continuous
 62
     7
370
    15
100
AcDbLine
 10
-238.2937261965
 20
-321.2726257485
 30
0.0
 11
-234.6648291612
 21
-319.2781914994
 31
0.0
  0
LINE
  5
861
330
1F
100
AcDbEntity
  8
0
  6
Continuous
 62
     7
370
    15
100
AcDbLine
 10
-240.0747254435
 20
-319.9439422824
 30
0.0
 11
-238.2937261965
 21
-321.2726257485
 31
0.0
  0
LINE
  5
862
330
1F
100
AcDbEntity
  8
0
  6
Continuous
 62
     7
370
    15
100
AcDbLine
 10
-240.0747254435
 20
-319.9439422824
 30
0.0
 11
-239.1967377965
 21
-315.8972400005
 31
0.0
  0
LINE
  5
863
330
1F
100
AcDbEntity
  8
0
  6
Continuous
 62
     7
370
    15
100
AcDbLine
 10
-244.055190772
 20
-316.9180712065
 30
0.0
 11
-240.390877395
 21
-314.9894786777
 31
0.0
  0
LINE
  5
864
330
1F
100
AcDbEntity
  8
0
  6
Continuous
 62
     7
370
    15
100
AcDbLine
 10
-245.8119114854
 20
-315.5574498755
 30
0.0
 11
-244.055190772
 21
-316.9180712065
 31
0.0
  0
LINE
  5
865
330
1F
100
AcDbEntity
  8
0
  6
Continuous
 62
     7
370
    15
100
AcDbLine
 10
-245.8119114854
 20
-315.5574498755
 30
0.0
 11
-244.861007174
 21
-311.5272584833
 31
0.0
  0
LINE
  5
866
330
1F
100
AcDbEntity
  8
0
  6
Continuous
 62
     7
370
    15
100
AcDbLine
 10
-249.7370985121
 20
-312.4602080694
 30
0.0
 11
-246.038563282
 21
-310.5980859415
 31
0.0
  0
LINE
  5
867
330
1F
100
AcDbEntity
  8
0
  6
Continuous
 62
     7
370
    15
100
AcDbLine
 10
-251.4689680379
 20
-311.0680924074
 30
0.0
 11
-249.7370985121
 21
-312.4602080694
 31
0.0
  0
LINE
  5
868
330
1F
100
AcDbEntity
  8
0
  6
Continuous
 62
     7
370
    15
100
AcDbLine
 10
-251.4689680379
 20
-311.0680924074
 30
0.0
 11
-250.445457037
 21
-307.0557256622
 31
0.0
  0
LINE
  5
869
330
1F
100
AcDbEntity
  8
0
  6
Continuous
 62
     7
370
    15
100
AcDbLine
 10
-255.3375972347
 20
-307.9004895066
 30
0.0
 11
-251.6060457961
 21
-306.1054447919
 31
0.0
  0
LINE
  5
86A
330
1F
100
AcDbEntity
  8
0
  6
Continuous
 62
     7
370
    15
100
AcDbLine
 10
-257.0440510202
 20
-306.4773333138
 30
0.0
 11
-255.3375972347
 21
-307.9004895066
 31
0.0
  0
LINE
  5
86B
330
1F
100
AcDbEntity
  8
0
  6
Continuous
 62
     7
370
    15
100
AcDbLine
 10
-257.0440510202
 20
-306.4773333138
 30
0.0
 11
-255.9482669727
 21
-302.4840991623
 31
0.0
  0
LINE
  5
86C
330
1F
100
AcDbEntity
  8
0
  6
Continuous
 62
     7
370
    15
100
AcDbLine
 10
-260.8548612958
 20
-303.2404018899
 30
0.0
 11
-257.0915100554
 21
-301.5130197352
 31
0.0
  0
LINE
  5
86D
330
1F
100
AcDbEntity
  8
0
  6
Continuous
 62
     7
370
    15
100
AcDbLine
 10
-262.535343073
 20
-301.7866690852
 30
0.0
 11
-260.8548612958
 21
-303.2404018899
 31
0.0
  0
LINE
  5
86E
330
1F
100
AcDbEntity
  8
0
  6
Continuous
 62
     7
370
    15
100
AcDbLine
 10
-262.535343073
 20
-301.7866690852
 30
0.0
 11
-261.3676431814
 21
-297.8138692375
 31
0.0
  0
LINE
  5
86F
330
1F
100
AcDbEntity
  8
0
  6
Continuous
 62
     7
370
    15
100
AcDbLine
 10
-266.2870921838
 20
-298.4814643094
 30
0.0
 11
-262.4931679146
 21
-296.8223078047
 31
0.0
  0
LINE
  5
870
330
1F
100
AcDbEntity
  8
0
  6
Continuous
 62
     7
370
    15
100
AcDbLine
 10
-267.9410541512
 20
-296.997628779
 30
0.0
 11
-266.2870921838
 21
-298.4814643094
 31
0.0
  0
LINE
  5
871
330
1F
100
AcDbEntity
  8
0
  6
Continuous
 62
     7
370
    15
100
AcDbLine
 10
-267.9410541512
 20
-296.997628779
 30
0.0
 11
-266.7018190609
 21
-293.0465582838
 31
0.0
  0
LINE
  5
872
330
1F
100
AcDbEntity
  8
0
  6
Continuous
 62
     7
370
    15
100
AcDbLine
 10
-271.6325191061
 20
-293.6252280783
 30
0.0
 11
-267.8092585474
 21
-292.0348380736
 31
0.0
  0
LINE
  5
873
330
1F
100
AcDbEntity
  8
0
  6
Continuous
 62
     7
370
    15
100
AcDbLine
 10
-273.2594221071
 20
-292.1117735212
 30
0.0
 11
-271.6325191061
 21
-293.6252280783
 31
0.0
  0
LINE
  5
874
330
1F
100
AcDbEntity
  8
0
  6
Continuous
 62
     7
370
    15
100
AcDbLine
 10
-273.2594221071
 20
-292.1117735212
 30
0.0
 11
-271.9490557826
 21
-288.183720344
 31
0.0
  0
LINE
  5
875
330
1F
100
AcDbEntity
  8
0
  6
Continuous
 62
     7
370
    15
100
AcDbLine
 10
-276.8893995667
 20
-288.6732762269
 30
0.0
 11
-273.0380490205
 21
-287.1521711557
 31
0.0
  0
LINE
  5
876
330
1F
100
AcDbEntity
  8
0
  6
Continuous
 62
     7
370
    15
100
AcDbLine
 10
-278.4887132652
 20
-287.1306959973
 30
0.0
 11
-276.8893995667
 21
-288.6732762269
 31
0.0
  0
LINE
  5
877
330
1F
100
AcDbEntity
  8
0
  6
Continuous
 62
     7
370
    15
100
AcDbLine
 10
-278.4887132652
 20
-287.1306959973
 30
0.0
 11
-277.1076428583
 21
-283.2269406005
 31
0.0
  0
LINE
  5
878
330
1F
100
AcDbEntity
  8
0
  6
Continuous
 62
     7
370
    15
100
AcDbLine
 10
-282.0560199334
 20
-283.627222987
 30
0.0
 11
-278.1778348588
 21
-282.1758986974
 31
0.0
  0
LINE
  5
879
330
1F
100
AcDbEntity
  8
0
  6
Continuous
 62
     7
370
    15
100
AcDbLine
 10
-283.627222987
 20
-282.0560199334
 30
0.0
 11
-282.0560199334
 21
-283.627222987
 31
0.0
  0
LINE
  5
87A
330
1F
100
AcDbEntity
  8
0
  6
Continuous
 62
     7
370
    15
100
AcDbLine
 10
-283.627222987
 20
-282.0560199334
 30
0.0
 11
-282.1758986974
 21
-278.1778348587
 31
0.0
  0
LINE
  5
87B
330
1F
100
AcDbEntity
  8
0
  6
Continuous
 62
     7
370
    15
100
AcDbLine
 10
-287.1306959973
 20
-278.4887132652
 30
0.0
 11
-283.2269406005
 21
-277.1076428583
 31
0.0
  0
LINE
  5
87C
330
1F
100
AcDbEntity
  8
0
  6
Continuous
 62
     7
370
    15
100
AcDbLine
 10
-288.673276227
 20
-276.8893995667
 30
0.0
 11
-287.1306959973
 21
-278.4887132652
 31
0.0
  0
LINE
  5
87D
330
1F
100
AcDbEntity
  8
0
  6
Continuous
 62
     7
370
    15
100
AcDbLine
 10
-288.673276227
 20
-276.8893995667
 30
0.0
 11
-287.1521711557
 21
-273.0380490205
 31
0.0
  0
LINE
  5
87E
330
1F
100
AcDbEntity
  8
0
  6
Continuous
 62
     7
370
    15
100
AcDbLine
 10
-292.1117735212
 20
-273.2594221071
 30
0.0
 11
-288.183720344
 21
-271.9490557826
 31
0.0
  0
LINE
  5
87F
330
1F
100
AcDbEntity
  8
0
  6
Continuous
 62
     7
370
    15
100
AcDbLine
 10
-293.6252280783
 20
-271.6325191061
 30
0.0
 11
-292.1117735212
 21
-273.2594221071
 31
0.0
  0
LINE
  5
880
330
1F
100
AcDbEntity
  8
0
  6
Continuous
 62
     7
370
    15
100
AcDbLine
 10
-293.6252280783
 20
-271.6325191061
 30
0.0
 11
-292.0348380736
 21
-267.8092585474
 31
0.0
  0
LINE
  5
881
330
1F
100
AcDbEntity
  8
0
  6
Continuous
 62
     7
370
    15
100
AcDbLine
 10
-296.997628779
 20
-267.9410541512
 30
0.0
 11
-293.0465582838
 21
-266.7018190609
 31
0.0
  0
LINE
  5
882
330
1F
100
AcDbEntity
  8
0
  6
Continuous
 62
     7
370
    15
100
AcDbLine
 10
-298.4814643094
 20
-266.2870921838
 30
0.0
 11
-296.997628779
 21
-267.9410541512
 31
0.0
  0
LINE
  5
883
330
1F
100
AcDbEntity
  8
0
  6
Continuous
 62
     7
370
    15
100
AcDbLine
 10
-298.4814643094
 20
-266.2870921838
 30
0.0
 11
-296.8223078047
 21
-262.4931679146
 31
0.0
  0
LINE
  5
884
330
1F
100
AcDbEntity
  8
0
  6
Continuous
 62
     7
370
    15
100
AcDbLine
 10
-301.7866690852
 20
-262.535343073
 30
0.0
 11
-297.8138692375
 21
-261.3676431814
 31
0.0
  0
LINE
  5
885
330
1F
100
AcDbEntity
  8
0
  6
Continuous
 62
     7
370
    15
100
AcDbLine
 10
-303.2404018899
 20
-260.8548612958
 30
0.0
 11
-301.7866690852
 21
-262.535343073
 31
0.0
  0
LINE
  5
886
330
1F
100
AcDbEntity
  8
0
  6
Continuous
 62
     7
370
    15
100
AcDbLine
 10
-303.2404018899
 20
-260.8548612958
 30
0.0
 11
-301.5130197352
 21
-257.0915100554
 31
0.0
  0
LINE
  5
887
330
1F
100
AcDbEntity
  8
0
  6
Continuous
 62
     7
370
    15
100
AcDbLine
 10
-306.4773333138
 20
-257.0440510202
 30
0.0
 11
-302.4840991623
 21
-255.9482669727
 31
0.0
  0
LINE
  5
888
330
1F
100
AcDbEntity
  8
0
  6
Continuous
 62
     7
370
    15
100
AcDbLine
 10
-307.9004895066
 20
-255.3375972347
 30
0.0
 11
-306.4773333138
 21
-257.0440510202
 31
0.0
  0
LINE
  5
889
330
1F
100
AcDbEntity
  8
0
  6
Continuous
 62
     7
370
    15
100
AcDbLine
 10
-307.9004895066
 20
-255.3375972347
 30
0.0
 11
-306.1054447919
 21
-251.6060457961
 31
0.0
  0
LINE
  5
88A
330
1F
100
AcDbEntity
  8
0
  6
Continuous
 62
     7
370
    15
100
AcDbLine
 10
-311.0680924074
 20
-251.4689680379
 30
0.0
 11
-307.0557256622
 21
-250.445457037
 31
0.0
  0
LINE
  5
88B
330
1F
100
AcDbEntity
  8
0
  6
Continuous
 62
     7
370
    15
100
AcDbLine
 10
-312.4602080694
 20
-249.7370985121
 30
0.0
 11
-311.0680924074
 21
-251.4689680379
 31
0.0
  0
LINE
  5
88C
330
1F
100
AcDbEntity
  8
0
  6
Continuous
 62
     7
370
    15
100
AcDbLine
 10
-312.4602080694
 20
-249.7370985121
 30
0.0
 11
-310.5980859415
 21
-246.038563282
 31
0.0
  0
LINE
  5
88D
330
1F
100
AcDbEntity
  8
0
  6
Continuous
 62
     7
370
    15
100
AcDbLine
 10
-315.5574498755
 20
-245.8119114853
 30
0.0
 11
-311.5272584833
 21
-244.861007174
 31
0.0
  0
LINE
  5
88E
330
1F
100
AcDbEntity
  8
0
  6
Continuous
 62
     7
370
    15
100
AcDbLine
 10
-316.9180712065
 20
-244.055190772
 30
0.0
 11
-315.5574498755
 21
-245.8119114853
 31
0.0
  0
LINE
  5
88F
330
1F
100
AcDbEntity
  8
0
  6
Continuous
 62
     7
370
    15
100
AcDbLine
 10
-316.9180712065
 20
-244.055190772
 30
0.0
 11
-314.9894786777
 21
-240.390877395
 31
0.0
  0
LINE
  5
890
330
1F
100
AcDbEntity
  8
0
  6
Continuous
 62
     7
370
    15
100
AcDbLine
 10
-319.9439422824
 20
-240.0747254435
 30
0.0
 11
-315.8972400005
 21
-239.1967377965
 31
0.0
  0
LINE
  5
891
330
1F
100
AcDbEntity
  8
0
  6
Continuous
 62
     7
370
    15
100
AcDbLine
 10
-321.2726257486
 20
-238.2937261965
 30
0.0
 11
-319.9439422824
 21
-240.0747254435
 31
0.0
  0
LINE
  5
892
330
1F
100
AcDbEntity
  8
0
  6
Continuous
 62
     7
370
    15
100
AcDbLine
 10
-321.2726257486
 20
-238.2937261965
 30
0.0
 11
-319.2781914994
 21
-234.6648291612
 31
0.0
  0
LINE
  5
893
330
1F
100
AcDbEntity
  8
0
  6
Continuous
 62
     7
370
    15
100
AcDbLine
 10
-324.2261397244
 20
-234.2592801138
 30
0.0
 11
-320.1642456921
 21
-233.4544953364
 31
0.0
  0
LINE
  5
894
330
1F
100
AcDbEntity
  8
0
  6
Continuous
 62
     7
370
    15
100
AcDbLine
 10
-325.5224522029
 20
-232.4545829013
 30
0.0
 11
-324.2261397244
 21
-234.2592801138
 31
0.0
  0
LINE
  5
895
330
1F
100
AcDbEntity
  8
0
  6
Continuous
 62
     7
370
    15
100
AcDbLine
 10
-325.5224522029
 20
-232.4545829013
 30
0.0
 11
-323.4628263768
 21
-228.8622851515
 31
0.0
  0
LINE
  5
896
330
1F
100
AcDbEntity
  8
0
  6
Continuous
 62
     7
370
    15
100
AcDbLine
 10
-328.4026462954
 20
-228.3674712085
 30
0.0
 11
-324.3268846045
 21
-227.6361516436
 31
0.0
  0
LINE
  5
897
330
1F
100
AcDbEntity
  8
0
  6
Continuous
 62
     7
370
    15
100
AcDbLine
 10
-329.6661652159
 20
-226.5396643236
 30
0.0
 11
-328.4026462954
 21
-228.3674712085
 31
0.0
  0
LINE
  5
898
330
1F
100
AcDbEntity
  8
0
  6
Continuous
 62
     7
370
    15
100
AcDbLine
 10
-329.6661652159
 20
-226.5396643236
 30
0.0
 11
-327.5420192073
 21
-222.9851368724
 31
0.0
  0
LINE
  5
899
330
1F
100
AcDbEntity
  8
0
  6
Continuous
 62
     7
370
    15
100
AcDbLine
 10
-332.4721005427
 20
-222.4012193328
 30
0.0
 11
-328.3837998053
 21
-221.7436033752
 31
0.0
  0
LINE
  5
89A
330
1F
100
AcDbEntity
  8
0
  6
Continuous
 62
     7
370
    15
100
AcDbLine
 10
-333.7024140246
 20
-220.5508986019
 30
0.0
 11
-332.4721005427
 21
-222.4012193328
 31
0.0
  0
LINE
  5
89B
330
1F
100
AcDbEntity
  8
0
  6
Continuous
 62
     7
370
    15
100
AcDbLine
 10
-333.7024140246
 20
-220.5508986019
 30
0.0
 11
-331.5144402603
 21
-217.0353001503
 31
0.0
  0
LINE
  5
89C
330
1F
100
AcDbEntity
  8
0
  6
Continuous
 62
     7
370
    15
100
AcDbLine
 10
-336.4331759101
 20
-216.3624693588
 30
0.0
 11
-332.3336688259
 21
-215.7787713773
 31
0.0
  0
LINE
  5
89D
330
1F
100
AcDbEntity
  8
0
  6
Continuous
 62
     7
370
    15
100
AcDbLine
 10
-337.6298828973
 20
-214.4902379474
 30
0.0
 11
-336.4331759101
 21
-216.3624693588
 31
0.0
  0
LINE
  5
89E
330
1F
100
AcDbEntity
  8
0
  6
Continuous
 62
     7
370
    15
100
AcDbLine
 10
-337.6298828973
 20
-214.4902379474
 30
0.0
 11
-335.3787946104
 21
-211.0147145061
 31
0.0
  0
LINE
  5
89F
330
1F
100
AcDbEntity
  8
0
  6
Continuous
 62
     7
370
    15
100
AcDbLine
 10
-340.2845811708
 20
-210.2531897914
 30
0.0
 11
-336.1752040924
 21
-209.7436000592
 31
0.0
  0
LINE
  5
8A0
330
1F
100
AcDbEntity
  8
0
  6
Continuous
 62
     7
370
    15
100
AcDbLine
 10
-341.447291562
 20
-208.3596580074
 30
0.0
 11
-340.2845811708
 21
-210.2531897914
 31
0.0
  0
LINE
  5
8A1
330
1F
100
AcDbEntity
  8
0
  6
Continuous
 62
     7
370
    15
100
AcDbLine
 10
-341.447291562
 20
-208.3596580074
 30
0.0
 11
-339.1338225598
 21
-204.9253425235
 31
0.0
  0
LINE
  5
8A2
330
1F
100
AcDbEntity
  8
0
  6
Continuous
 62
     7
370
    15
100
AcDbLine
 10
-345.1533956242
 20
-202.1611572213
 30
0.0
 11
-344.0250608479
 21
-204.0753721265
 31
0.0
  0
LINE
  5
8A3
330
1F
100
AcDbEntity
  8
0
  6
Continuous
 62
     7
370
    15
100
AcDbLine
 10
-345.1533956242
 20
-202.1611572213
 30
0.0
 11
-342.7783000487
 21
-198.7691692092
 31
0.0
  0
LINE
  5
8A4
330
1F
100
AcDbEntity
  8
0
  6
Continuous
 62
     7
370
    15
100
AcDbLine
 10
-347.6533956242
 20
-197.8310302024
 30
0.0
 11
-343.5283000487
 21
-197.4701311036
 31
0.0
  0
LINE
  5
8A5
330
1F
100
AcDbEntity
  8
0
  6
Continuous
 62
     7
370
    15
100
AcDbLine
 10
-348.7469869723
 20
-195.8967561695
 30
0.0
 11
-347.6533956242
 21
-197.8310302024
 31
0.0
  0
LINE
  5
8A6
330
1F
100
AcDbEntity
  8
0
  6
Continuous
 62
     7
370
    15
100
AcDbLine
 10
-348.7469869723
 20
-195.8967561695
 30
0.0
 11
-346.3110390544
 21
-192.5482013457
 31
0.0
  0
LINE
  5
8A7
330
1F
100
AcDbEntity
  8
0
  6
Continuous
 62
     7
370
    15
100
AcDbLine
 10
-351.1684027392
 20
-191.5221995424
 30
0.0
 11
-347.0374637845
 21
-191.2358343575
 31
0.0
  0
LINE
  5
8A8
330
1F
100
AcDbEntity
  8
0
  6
Continuous
 62
     7
370
    15
100
AcDbLine
 10
-352.2268941714
 20
-189.5684969143
 30
0.0
 11
-351.1684027392
 21
-191.5221995424
 31
0.0
  0
LINE
  5
8A9
330
1F
100
AcDbEntity
  8
0
  6
Continuous
 62
     7
370
    15
100
AcDbLine
 10
-352.2268941714
 20
-189.5684969143
 30
0.0
 11
-349.7308879787
 21
-186.2644668368
 31
0.0
  0
LINE
  5
8AA
330
1F
100
AcDbEntity
  8
0
  6
Continuous
 62
     7
370
    15
100
AcDbLine
 10
-354.5689363749
 20
-185.1509366921
 30
0.0
 11
-350.4335006398
 21
-184.9391987702
 31
0.0
  0
LINE
  5
8AB
330
1F
100
AcDbEntity
  8
0
  6
Continuous
 62
     7
370
    15
100
AcDbLine
 10
-355.5919828453
 20
-183.1784423346
 30
0.0
 11
-354.5689363749
 21
-185.1509366921
 31
0.0
  0
LINE
  5
8AC
330
1F
100
AcDbEntity
  8
0
  6
Continuous
 62
     7
370
    15
100
AcDbLine
 10
-355.5919828453
 20
-183.1784423346
 30
0.0
 11
-353.0367320231
 21
-179.9200140475
 31
0.0
  0
LINE
  5
8AD
330
1F
100
AcDbEntity
  8
0
  6
Continuous
 62
     7
370
    15
100
AcDbLine
 10
-357.8538880291
 20
-178.7193185486
 30
0.0
 11
-353.7153035782
 21
-178.5822769116
 31
0.0
  0
LINE
  5
8AE
330
1F
100
AcDbEntity
  8
0
  6
Continuous
 62
     7
370
    15
100
AcDbLine
 10
-358.8411560462
 20
-176.7286754532
 30
0.0
 11
-357.8538880291
 21
-178.7193185486
 31
0.0
  0
LINE
  5
8AF
330
1F
100
AcDbEntity
  8
0
  6
Continuous
 62
     7
370
    15
100
AcDbLine
 10
-358.8411560462
 20
-176.7286754532
 30
0.0
 11
-356.2274935523
 21
-173.5169111351
 31
0.0
  0
LINE
  5
8B0
330
1F
100
AcDbEntity
  8
0
  6
Continuous
 62
     7
370
    15
100
AcDbLine
 10
-361.022186877
 20
-172.2294416834
 30
0.0
 11
-356.8818028015
 21
-172.1671410041
 31
0.0
  0
LINE
  5
8B1
330
1F
100
AcDbEntity
  8
0
  6
Continuous
 62
     7
370
    15
100
AcDbLine
 10
-361.9733546123
 20
-170.2212987576
 30
0.0
 11
-361.022186877
 21
-172.2294416834
 31
0.0
  0
LINE
  5
8B2
330
1F
100
AcDbEntity
  8
0
  6
Continuous
 62
     7
370
    15
100
AcDbLine
 10
-361.9733546123
 20
-170.2212987576
 30
0.0
 11
-359.3021324454
 21
-167.057245376
 31
0.0
  0
LINE
  5
8B3
330
1F
100
AcDbEntity
  8
0
  6
Continuous
 62
     7
370
    15
100
AcDbLine
 10
-364.0728001201
 20
-165.6834216593
 30
0.0
 11
-359.9319660977
 21
-165.6958822465
 31
0.0
  0
LINE
  5
8B4
330
1F
100
AcDbEntity
  8
0
  6
Continuous
 62
     7
370
    15
100
AcDbLine
 10
-364.987557513
 20
-163.6584335154
 30
0.0
 11
-364.0728001201
 21
-165.6834216593
 31
0.0
  0
LINE
  5
8B5
330
1F
100
AcDbEntity
  8
0
  6
Continuous
 62
     7
370
    15
100
AcDbLine
 10
-364.987557513
 20
-163.6584335154
 30
0.0
 11
-362.2596464351
 21
-160.5431224847
 31
0.0
  0
LINE
  5
8B6
330
1F
100
AcDbEntity
  8
0
  6
Continuous
 62
     7
370
    15
100
AcDbLine
 10
-367.0047333229
 20
-159.0833923405
 30
0.0
 11
-362.8647991781
 21
-159.1706101322
 31
0.0
  0
LINE
  5
8B7
330
1F
100
AcDbEntity
  8
0
  6
Continuous
 62
     7
370
    15
100
AcDbLine
 10
-367.8827821819
 20
-157.0422190818
 30
0.0
 11
-367.0047333229
 21
-159.0833923405
 31
0.0
  0
LINE
  5
8B8
330
1F
100
AcDbEntity
  8
0
  6
Continuous
 62
     7
370
    15
100
AcDbLine
 10
-367.8827821819
 20
-157.0422190818
 30
0.0
 11
-365.0990714343
 21
-153.9766659276
 31
0.0
  0
LINE
  5
8B9
330
1F
100
AcDbEntity
  8
0
  6
Continuous
 62
     7
370
    15
100
AcDbLine
 10
-369.8170307373
 20
-152.4315051971
 30
0.0
 11
-365.679346001
 21
-152.5934517622
 31
0.0
  0
LINE
  5
8BA
330
1F
100
AcDbEntity
  8
0
  6
Continuous
 62
     7
370
    15
100
AcDbLine
 10
-370.6580848369
 20
-150.3748122029
 30
0.0
 11
-369.8170307373
 21
-152.4315051971
 31
0.0
  0
LINE
  5
8BB
330
1F
100
AcDbEntity
  8
0
  6
Continuous
 62
     7
370
    15
100
AcDbLine
 10
-370.6580848369
 20
-150.3748122029
 30
0.0
 11
-367.8194818506
 21
-147.3600162308
 31
0.0
  0
LINE
  5
8BC
330
1F
100
AcDbEntity
  8
0
  6
Continuous
 62
     7
370
    15
100
AcDbLine
 10
-372.5087756136
 20
-145.7299286038
 30
0.0
 11
-368.3746890836
 21
-145.9665511511
 31
0.0
  0
LINE
  5
8BD
330
1F
100
AcDbEntity
  8
0
  6
Continuous
 62
     7
370
    15
100
AcDbLine
 10
-373.3125607879
 20
-143.6583863126
 30
0.0
 11
-372.5087756136
 21
-145.7299286038
 31
0.0
  0
LINE
  5
8BE
330
1F
100
AcDbEntity
  8
0
  6
Continuous
 62
     7
370
    15
100
AcDbLine
 10
-373.3125607879
 20
-143.6583863126
 30
0.0
 11
-370.4199908875
 21
-140.6953302824
 31
0.0
  0
LINE
  5
8BF
330
1F
100
AcDbEntity
  8
0
  6
Continuous
 62
     7
370
    15
100
AcDbLine
 10
-375.0790904999
 20
-138.980847133
 30
0.0
 11
-370.9499498011
 21
-139.2920685285
 31
0.0
  0
LINE
  5
8C0
330
1F
100
AcDbEntity
  8
0
  6
Continuous
 62
     7
370
    15
100
AcDbLine
 10
-375.845344732
 20
-136.8951308238
 30
0.0
 11
-375.0790904999
 21
-138.980847133
 31
0.0
  0
LINE
  5
8C1
330
1F
100
AcDbEntity
  8
0
  6
Continuous
 62
     7
370
    15
100
AcDbLine
 10
-375.845344732
 20
-136.8951308238
 30
0.0
 11
-372.8997508341
 21
-133.9847806291
 31
0.0
  0
LINE
  5
8C2
330
1F
100
AcDbEntity
  8
0
  6
Continuous
 62
     7
370
    15
100
AcDbLine
 10
-377.5271375278
 20
-132.1864608425
 30
0.0
 11
-373.4042886729
 21
-132.5721796347
 31
0.0
  0
LINE
  5
8C3
330
1F
100
AcDbEntity
  8
0
  6
Continuous
 62
     7
370
    15
100
AcDbLine
 10
-378.2556110351
 20
-130.0872504148
 30
0.0
 11
-377.5271375278
 21
-132.1864608425
 31
0.0
  0
LINE
  5
8C4
330
1F
100
AcDbEntity
  8
0
  6
Continuous
 62
     7
370
    15
100
AcDbLine
 10
-378.2556110351
 20
-130.0872504148
 30
0.0
 11
-375.2579533411
 21
-127.2305547683
 31
0.0
  0
LINE
  5
8C5
330
1F
100
AcDbEntity
  8
0
  6
Continuous
 62
     7
370
    15
100
AcDbLine
 10
-379.8521186858
 20
-125.3489845589
 30
0.0
 11
-375.7369056363
 21
-125.8090750115
 31
0.0
  0
LINE
  5
8C6
330
1F
100
AcDbEntity
  8
0
  6
Continuous
 62
     7
370
    15
100
AcDbLine
 10
-380.5425740012
 20
-123.2369643108
 30
0.0
 11
-379.8521186858
 21
-125.3489845589
 31
0.0
  0
LINE
  5
8C7
330
1F
100
AcDbEntity
  8
0
  6
Continuous
 62
     7
370
    15
100
AcDbLine
 10
-380.5425740012
 20
-123.2369643108
 30
0.0
 11
-377.4938296842
 21
-120.4348544349
 31
0.0
  0
LINE
  5
8C8
330
1F
100
AcDbEntity
  8
0
  6
Continuous
 62
     7
370
    15
100
AcDbLine
 10
-382.053276079
 20
-118.4706471548
 30
0.0
 11
-377.9470403075
 21
-119.0049592881
 31
0.0
  0
LINE
  5
8C9
330
1F
100
AcDbEntity
  8
0
  6
Continuous
 62
     7
370
    15
100
AcDbLine
 10
-382.7054881288
 20
-116.3465055604
 30
0.0
 11
-382.053276079
 21
-118.4706471548
 31
0.0
  0
LINE
  5
8CA
330
1F
100
AcDbEntity
  8
0
  6
Continuous
 62
     7
370
    15
100
AcDbLine
 10
-382.7054881288
 20
-116.3465055604
 30
0.0
 11
-379.606651015
 21
-113.5998948837
 31
0.0
  0
LINE
  5
8CB
330
1F
100
AcDbEntity
  8
0
  6
Continuous
 62
     7
370
    15
100
AcDbLine
 10
-384.1298921768
 20
-111.5536908229
 30
0.0
 11
-380.0339722294
 21
-112.1620504625
 31
0.0
  0
LINE
  5
8CC
330
1F
100
AcDbEntity
  8
0
  6
Continuous
 62
     7
370
    15
100
AcDbLine
 10
-384.7436483535
 20
-109.4181203074
 30
0.0
 11
-384.1298921768
 21
-111.5536908229
 31
0.0
  0
LINE
  5
8CD
330
1F
100
AcDbEntity
  8
0
  6
Continuous
 62
     7
370
    15
100
AcDbLine
 10
-384.7436483535
 20
-109.4181203074
 30
0.0
 11
-381.5957285983
 21
-106.7279041671
 31
0.0
  0
LINE
  5
8CE
330
1F
100
AcDbEntity
  8
0
  6
Continuous
 62
     7
370
    15
100
AcDbLine
 10
-386.0812900462
 20
-104.6003703448
 30
0.0
 11
-381.9970211061
 21
-105.2825791783
 31
0.0
  0
LINE
  5
8CF
330
1F
100
AcDbEntity
  8
0
  6
Continuous
 62
     7
370
    15
100
AcDbLine
 10
-386.6563902783
 20
-102.4540670592
 30
0.0
 11
-386.0812900462
 21
-104.6003703448
 31
0.0
  0
LINE
  5
8D0
330
1F
100
AcDbEntity
  8
0
  6
Continuous
 62
     7
370
    15
100
AcDbLine
 10
-386.6563902783
 20
-102.4540670592
 30
0.0
 11
-383.460414037
 21
-99.8211224087
 31
0.0
  0
LINE
  5
8D1
330
1F
100
AcDbEntity
  8
0
  6
Continuous
 62
     7
370
    15
100
AcDbLine
 10
-387.9068335726
 20
-97.6129523562
 30
0.0
 11
-383.8355470253
 21
-98.3687879978
 31
0.0
  0
LINE
  5
8D2
330
1F
100
AcDbEntity
  8
0
  6
Continuous
 62
     7
370
    15
100
AcDbLine
 10
-388.4430903896
 20
-95.4566159499
 30
0.0
 11
-387.9068335726
 21
-97.6129523562
 31
0.0
  0
LINE
  5
8D3
330
1F
100
AcDbEntity
  8
0
  6
Continuous
 62
     7
370
    15
100
AcDbLine
 10
-388.4430903896
 20
-95.4566159499
 30
0.0
 11
-385.200099483
 21
-92.8818010736
 31
0.0
  0
LINE
  5
8D4
330
1F
100
AcDbEntity
  8
0
  6
Continuous
 62
     7
370
    15
100
AcDbLine
 10
-389.6059276674
 20
-90.5937146076
 30
0.0
 11
-385.5489506663
 21
-91.4229306709
 31
0.0
  0
LINE
  5
8D5
330
1F
100
AcDbEntity
  8
0
  6
Continuous
 62
     7
370
    15
100
AcDbLine
 10
-390.1031662609
 20
-88.4280480007
 30
0.0
 11
-389.6059276674
 21
-90.5937146076
 31
0.0
  0
LINE
  5
8D6
330
1F
100
AcDbEntity
  8
0
  6
Continuous
 62
     7
370
    15
100
AcDbLine
 10
-390.1031662609
 20
-88.4280480007
 30
0.0
 11
-386.8142178355
 21
-85.9122022339
 31
0.0
  0
LINE
  5
8D7
330
1F
100
AcDbEntity
  8
0
  6
Continuous
 62
     7
370
    15
100
AcDbLine
 10
-391.178018462
 20
-83.5449452222
 30
0.0
 11
-387.1366734958
 21
-84.4472714004
 31
0.0
  0
LINE
  5
8D8
330
1F
100
AcDbEntity
  8
0
  6
Continuous
 62
     7
370
    15
100
AcDbLine
 10
-391.6360767426
 20
-81.3706543763
 30
0.0
 11
-391.178018462
 21
-83.5449452222
 31
0.0
  0
LINE
  5
8D9
330
1F
100
AcDbEntity
  8
0
  6
Continuous
 62
     7
370
    15
100
AcDbLine
 10
-391.6360767426
 20
-81.3706543763
 30
0.0
 11
-388.3022429261
 21
-78.9145978316
 31
0.0
  0
LINE
  5
8DA
330
1F
100
AcDbEntity
  8
0
  6
Continuous
 62
     7
370
    15
100
AcDbLine
 10
-392.6225934878
 20
-76.4689419499
 30
0.0
 11
-388.5981979497
 21
-77.4440841036
 31
0.0
  0
LINE
  5
8DB
330
1F
100
AcDbEntity
  8
0
  6
Continuous
 62
     7
370
    15
100
AcDbLine
 10
-393.0413221384
 20
-74.2867356379
 30
0.0
 11
-392.6225934878
 21
-76.4689419499
 31
0.0
  0
LINE
  5
8DC
330
1F
100
AcDbEntity
  8
0
  6
Continuous
 62
     7
370
    15
100
AcDbLine
 10
-393.0413221384
 20
-74.2867356379
 30
0.0
 11
-389.6636896901
 21
-71.8912689377
 31
0.0
  0
LINE
  5
8DD
330
1F
100
AcDbEntity
  8
0
  6
Continuous
 62
     7
370
    15
100
AcDbLine
 10
-393.939181844
 20
-69.3680114182
 30
0.0
 11
-389.9330476018
 21
-70.4156516718
 31
0.0
  0
LINE
  5
8DE
330
1F
100
AcDbEntity
  8
0
  6
Continuous
 62
     7
370
    15
100
AcDbLine
 10
-394.3184443677
 20
-67.1786009933
 30
0.0
 11
-393.939181844
 21
-69.3680114182
 31
0.0
  0
LINE
  5
8DF
330
1F
100
AcDbEntity
  8
0
  6
Continuous
 62
     7
370
    15
100
AcDbLine
 10
-394.3184443677
 20
-67.1786009933
 30
0.0
 11
-390.8981143246
 21
-64.8445050092
 31
0.0
  0
LINE
  5
8E0
330
1F
100
AcDbEntity
  8
0
  6
Continuous
 62
     7
370
    15
100
AcDbLine
 10
-395.1273543505
 20
-62.2444683806
 30
0.0
 11
-391.1407873194
 21
-63.3642652254
 31
0.0
  0
LINE
  5
8E1
330
1F
100
AcDbEntity
  8
0
  6
Continuous
 62
     7
370
    15
100
AcDbLine
 10
-395.4670271159
 20
-60.0485675442
 30
0.0
 11
-395.1273543505
 21
-62.2444683806
 31
0.0
  0
LINE
  5
8E2
330
1F
100
AcDbEntity
  8
0
  6
Continuous
 62
     7
370
    15
100
AcDbLine
 10
-395.4670271159
 20
-60.0485675442
 30
0.0
 11
-392.0051144331
 21
-57.7766031421
 31
0.0
  0
LINE
  5
8E3
330
1F
100
AcDbEntity
  8
0
  6
Continuous
 62
     7
370
    15
100
AcDbLine
 10
-396.1867236883
 20
-55.1006349614
 30
0.0
 11
-392.2210234049
 21
-56.2922233673
 31
0.0
  0
LINE
  5
8E4
330
1F
100
AcDbEntity
  8
0
  6
Continuous
 62
     7
370
    15
100
AcDbLine
 10
-396.4866959692
 20
-52.8989595308
 30
0.0
 11
-396.1867236883
 21
-55.1006349614
 31
0.0
  0
LINE
  5
8E5
330
1F
100
AcDbEntity
  8
0
  6
Continuous
 62
     7
370
    15
100
AcDbLine
 10
-396.4866959692
 20
-52.8989595308
 30
0.0
 11
-392.9843291572
 21
-50.6898673233
 31
0.0
  0
LINE
  5
8E6
330
1F
100
AcDbEntity
  8
0
  6
Continuous
 62
     7
370
    15
100
AcDbLine
 10
-397.1169445253
 20
-47.9388398994
 30
0.0
 11
-393.173403724
 21
-49.2018314338
 31
0.0
  0
LINE
  5
8E7
330
1F
100
AcDbEntity
  8
0
  6
Continuous
 62
     7
370
    15
100
AcDbLine
 10
-397.377118537
 20
-45.7321075744
 30
0.0
 11
-397.1169445253
 21
-47.9388398994
 31
0.0
  0
LINE
  5
8E8
330
1F
100
AcDbEntity
  8
0
  6
Continuous
 62
     7
370
    15
100
AcDbLine
 10
-397.377118537
 20
-45.7321075744
 30
0.0
 11
-393.8354392934
 21
-43.5866076787
 31
0.0
  0
LINE
  5
8E9
330
1F
100
AcDbEntity
  8
0
  6
Continuous
 62
     7
370
    15
100
AcDbLine
 10
-397.9177136292
 20
-40.7614177886
 30
0.0
 11
-393.9976178211
 21
-42.0954007429
 31
0.0
  0
LINE
  5
8EA
330
1F
100
AcDbEntity
  8
0
  6
Continuous
 62
     7
370
    15
100
AcDbLine
 10
-398.1380045606
 20
-38.5503479172
 30
0.0
 11
-397.9177136292
 21
-40.7614177886
 31
0.0
  0
LINE
  5
8EB
330
1F
100
AcDbEntity
  8
0
  6
Continuous
 62
     7
370
    15
100
AcDbLine
 10
-398.1380045606
 20
-38.5503479172
 30
0.0
 11
-394.5581673979
 21
-36.4691397209
 31
0.0
  0
LINE
  5
8EC
330
1F
100
AcDbEntity
  8
0
  6
Continuous
 62
     7
370
    15
100
AcDbLine
 10
-398.5887699661
 20
-33.5707083168
 30
0.0
 11
-394.6933970196
 21
-34.9752478408
 31
0.0
  0
LINE
  5
8ED
330
1F
100
AcDbEntity
  8
0
  6
Continuous
 62
     7
370
    15
100
AcDbLine
 10
-398.769106007
 20
-31.3560216611
 30
0.0
 11
-398.5887699661
 21
-33.5707083168
 31
0.0
  0
LINE
  5
8EE
330
1F
100
AcDbEntity
  8
0
  6
Continuous
 62
     7
370
    15
100
AcDbLine
 10
-398.769106007
 20
-31.3560216611
 30
0.0
 11
-395.1522778766
 21
-29.3397835942
 31
0.0
  0
LINE
  5
8EF
330
1F
100
AcDbEntity
  8
0
  6
Continuous
 62
     7
370
    15
100
AcDbLine
 10
-399.129894786
 20
-26.3690555035
 30
0.0
 11
-395.2605145103
 21
-27.8436937469
 31
0.0
  0
LINE
  5
8F0
330
1F
100
AcDbEntity
  8
0
  6
Continuous
 62
     7
370
    15
100
AcDbLine
 10
-399.2702171505
 20
-24.1514740044
 30
0.0
 11
-399.129894786
 21
-26.3690555035
 31
0.0
  0
LINE
  5
8F1
330
1F
100
AcDbEntity
  8
0
  6
Continuous
 62
     7
370
    15
100
AcDbLine
 10
-399.2702171505
 20
-24.1514740044
 30
0.0
 11
-395.6175770619
 21
-22.200863318
 31
0.0
  0
LINE
  5
8F2
330
1F
100
AcDbEntity
  8
0
  6
Continuous
 62
     7
370
    15
100
AcDbLine
 10
-399.5409116934
 20
-19.1588069352
 30
0.0
 11
-395.6987854248
 21
-20.7030631972
 31
0.0
  0
LINE
  5
8F3
330
1F
100
AcDbEntity
  8
0
  6
Continuous
 62
     7
370
    15
100
AcDbLine
 10
-399.6411746396
 20
-16.9390534776
 30
0.0
 11
-399.5409116934
 21
-19.1588069352
 31
0.0
  0
LINE
  5
8F4
330
1F
100
AcDbEntity
  8
0
  6
Continuous
 62
     7
370
    15
100
AcDbLine
 10
-399.6411746396
 20
-16.9390534776
 30
0.0
 11
-395.9539132762
 21
-15.0547060294
 31
0.0
  0
LINE
  5
8F5
330
1F
100
AcDbEntity
  8
0
  6
Continuous
 62
     7
370
    15
100
AcDbLine
 10
-399.8216867057
 20
-11.9423130006
 30
0.0
 11
-396.0080668961
 21
-13.5556838863
 31
0.0
  0
LINE
  5
8F6
330
1F
100
AcDbEntity
  8
0
  6
Continuous
 62
     7
370
    15
100
AcDbLine
 10
-399.8818575498
 20
-9.7211111772
 30
0.0
 11
-399.8216867057
 21
-11.9423130006
 31
0.0
  0
LINE
  5
8F7
330
1F
100
AcDbEntity
  8
0
  6
Continuous
 62
     7
370
    15
100
AcDbLine
 10
-399.8818575498
 20
-9.7211111772
 30
0.0
 11
-396.1611768811
 21
-7.9036412247
 31
0.0
  0
LINE
  5
8F8
330
1F
100
AcDbEntity
  8
0
  6
Continuous
 62
     7
370
    15
100
AcDbLine
 10
-399.9721282961
 20
-4.7219261244
 30
0.0
 11
-396.1882581049
 21
-6.4038857089
 31
0.0
  0
LINE
  5
8F9
330
1F
100
AcDbEntity
  8
0
  6
Continuous
 62
     7
370
    15
100
AcDbLine
 10
-399.9921874237
 20
-2.5
 30
0.0
 11
-399.9721282961
 21
-4.7219261244
 31
0.0
  0
LINE
  5
8FA
330
1F
100
AcDbEntity
  8
0
  6
Continuous
 62
     7
370
    15
100
AcDbLine
 10
-399.9921874237
 20
-2.5
 30
0.0
 11
-396.2393003128
 21
-0.75
 31
0.0
  0
LINE
  5
8FB
330
1F
100
AcDbEntity
  8
0
  6
Continuous
 62
     7
370
    15
100
AcDbLine
 10
-399.9921874237
 20
2.5
 30
0.0
 11
-396.2393003128
 21
0.75
 31
0.0
  0
LINE
  5
8FC
330
1F
100
AcDbEntity
  8
0
  6
Continuous
 62
     7
370
    15
100
AcDbLine
 10
-399.9721282961
 20
4.7219261244
 30
0.0
 11
-399.9921874237
 21
2.5
 31
0.0
  0
LINE
  5
8FD
330
1F
100
AcDbEntity
  8
0
  6
Continuous
 62
     7
370
    15
100
AcDbLine
 10
-399.9721282961
 20
4.7219261244
 30
0.0
 11
-396.1882581049
 21
6.4038857089
 31
0.0
  0
LINE
  5
8FE
330
1F
100
AcDbEntity
  8
0
  6
Continuous
 62
     7
370
    15
100
AcDbLine
 10
-399.8818575498
 20
9.7211111772
 30
0.0
 11
-396.161176881
 21
7.9036412247
 31
0.0
  0
LINE
  5
8FF
330
1F
100
AcDbEntity
  8
0
  6
Continuous
 62
     7
370
    15
100
AcDbLine
 10
-399.8216867057
 20
11.9423130006
 30
0.0
 11
-399.8818575498
 21
9.7211111772
 31
0.0
  0
LINE
  5
900
330
1F
100
AcDbEntity
  8
0
  6
Continuous
 62
     7
370
    15
100
AcDbLine
 10
-399.8216867057
 20
11.9423130006
 30
0.0
 11
-396.0080668961
 21
13.5556838863
 31
0.0
  0
LINE
  5
901
330
1F
100
AcDbEntity
  8
0
  6
Continuous
 62
     7
370
    15
100
AcDbLine
 10
-399.6411746396
 20
16.9390534776
 30
0.0
 11
-395.9539132762
 21
15.0547060294
 31
0.0
  0
LINE
  5
902
330
1F
100
AcDbEntity
  8
0
  6
Continuous
 62
     7
370
    15
100
AcDbLine
 10
-399.5409116934
 20
19.1588069352
 30
0.0
 11
-399.6411746396
 21
16.9390534776
 31
0.0
  0
LINE
  5
903
330
1F
100
AcDbEntity
  8
0
  6
Continuous
 62
     7
370
    15
100
AcDbLine
 10
-399.5409116934
 20
19.1588069352
 30
0.0
 11
-395.6987854248
 21
20.7030631972
 31
0.0
  0
LINE
  5
904
330
1F
100
AcDbEntity
  8
0
  6
Continuous
 62
     7
370
    15
100
AcDbLine
 10
-399.2702171505
 20
24.1514740044
 30
0.0
 11
-395.6175770619
 21
22.200863318
 31
0.0
  0
LINE
  5
905
330
1F
100
AcDbEntity
  8
0
  6
Continuous
 62
     7
370
    15
100
AcDbLine
 10
-399.129894786
 20
26.3690555035
 30
0.0
 11
-399.2702171505
 21
24.1514740044
 31
0.0
  0
LINE
  5
906
330
1F
100
AcDbEntity
  8
0
  6
Continuous
 62
     7
370
    15
100
AcDbLine
 10
-399.129894786
 20
26.3690555035
 30
0.0
 11
-395.2605145103
 21
27.8436937469
 31
0.0
  0
LINE
  5
907
330
1F
100
AcDbEntity
  8
0
  6
Continuous
 62
     7
370
    15
100
AcDbLine
 10
-398.769106007
 20
31.3560216611
 30
0.0
 11
-395.1522778766
 21
29.3397835942
 31
0.0
  0
LINE
  5
908
330
1F
100
AcDbEntity
  8
0
  6
Continuous
 62
     7
370
    15
100
AcDbLine
 10
-398.5887699661
 20
33.5707083168
 30
0.0
 11
-398.769106007
 21
31.3560216611
 31
0.0
  0
LINE
  5
909
330
1F
100
AcDbEntity
  8
0
  6
Continuous
 62
     7
370
    15
100
AcDbLine
 10
-398.5887699661
 20
33.5707083168
 30
0.0
 11
-394.6933970196
 21
34.9752478408
 31
0.0
  0
LINE
  5
90A
330
1F
100
AcDbEntity
  8
0
  6
Continuous
 62
     7
370
    15
100
AcDbLine
 10
-398.1380045606
 20
38.5503479172
 30
0.0
 11
-394.5581673979
 21
36.4691397209
 31
0.0
  0
LINE
  5
90B
330
1F
100
AcDbEntity
  8
0
  6
Continuous
 62
     7
370
    15
100
AcDbLine
 10
-397.9177136292
 20
40.7614177886
 30
0.0
 11
-398.1380045606
 21
38.5503479172
 31
0.0
  0
LINE
  5
90C
330
1F
100
AcDbEntity
  8
0
  6
Continuous
 62
     7
370
    15
100
AcDbLine
 10
-397.9177136292
 20
40.7614177886
 30
0.0
 11
-393.9976178211
 21
42.0954007429
 31
0.0
  0
LINE
  5
90D
330
1F
100
AcDbEntity
  8
0
  6
Continuous
 62
     7
370
    15
100
AcDbLine
 10
-397.377118537
 20
45.7321075744
 30
0.0
 11
-393.8354392934
 21
43.5866076787
 31
0.0
  0
LINE
  5
90E
330
1F
100
AcDbEntity
  8
0
  6
Continuous
 62
     7
370
    15
100
AcDbLine
 10
-397.1169445253
 20
47.9388398994
 30
0.0
 11
-397.377118537
 21
45.7321075744
 31
0.0
  0
LINE
  5
90F
330
1F
100
AcDbEntity
  8
0
  6
Continuous
 62
     7
370
    15
100
AcDbLine
 10
-397.1169445253
 20
47.9388398994
 30
0.0
 11
-393.173403724
 21
49.2018314339
 31
0.0
  0
LINE
  5
910
330
1F
100
AcDbEntity
  8
0
  6
Continuous
 62
     7
370
    15
100
AcDbLine
 10
-396.4866959692
 20
52.8989595308
 30
0.0
 11
-392.9843291572
 21
50.6898673233
 31
0.0
  0
LINE
  5
911
330
1F
100
AcDbEntity
  8
0
  6
Continuous
 62
     7
370
    15
100
AcDbLine
 10
-396.1867236883
 20
55.1006349614
 30
0.0
 11
-396.4866959692
 21
52.8989595308
 31
0.0
  0
LINE
  5
912
330
1F
100
AcDbEntity
  8
0
  6
Continuous
 62
     7
370
    15
100
AcDbLine
 10
-396.1867236883
 20
55.1006349614
 30
0.0
 11
-392.2210234049
 21
56.2922233673
 31
0.0
  0
LINE
  5
913
330
1F
100
AcDbEntity
  8
0
  6
Continuous
 62
     7
370
    15
100
AcDbLine
 10
-395.4670271159
 20
60.0485675442
 30
0.0
 11
-392.0051144331
 21
57.7766031422
 31
0.0
  0
LINE
  5
914
330
1F
100
AcDbEntity
  8
0
  6
Continuous
 62
     7
370
    15
100
AcDbLine
 10
-395.1273543505
 20
62.2444683806
 30
0.0
 11
-395.4670271159
 21
60.0485675442
 31
0.0
  0
LINE
  5
915
330
1F
100
AcDbEntity
  8
0
  6
Continuous
 62
     7
370
    15
100
AcDbLine
 10
-395.1273543505
 20
62.2444683806
 30
0.0
 11
-391.1407873194
 21
63.3642652254
 31
0.0
  0
LINE
  5
916
330
1F
100
AcDbEntity
  8
0
  6
Continuous
 62
     7
370
    15
100
AcDbLine
 10
-394.3184443677
 20
67.1786009933
 30
0.0
 11
-390.8981143246
 21
64.8445050092
 31
0.0
  0
LINE
  5
917
330
1F
100
AcDbEntity
  8
0
  6
Continuous
 62
     7
370
    15
100
AcDbLine
 10
-393.9391818439
 20
69.3680114182
 30
0.0
 11
-394.3184443677
 21
67.1786009933
 31
0.0
  0
LINE
  5
918
330
1F
100
AcDbEntity
  8
0
  6
Continuous
 62
     7
370
    15
100
AcDbLine
 10
-393.9391818439
 20
69.3680114182
 30
0.0
 11
-389.9330476018
 21
70.4156516718
 31
0.0
  0
LINE
  5
919
330
1F
100
AcDbEntity
  8
0
  6
Continuous
 62
     7
370
    15
100
AcDbLine
 10
-393.0413221384
 20
74.2867356379
 30
0.0
 11
-389.6636896901
 21
71.8912689377
 31
0.0
  0
LINE
  5
91A
330
1F
100
AcDbEntity
  8
0
  6
Continuous
 62
     7
370
    15
100
AcDbLine
 10
-392.6225934878
 20
76.4689419499
 30
0.0
 11
-393.0413221384
 21
74.2867356379
 31
0.0
  0
LINE
  5
91B
330
1F
100
AcDbEntity
  8
0
  6
Continuous
 62
     7
370
    15
100
AcDbLine
 10
-392.6225934878
 20
76.4689419499
 30
0.0
 11
-388.5981979497
 21
77.4440841036
 31
0.0
  0
LINE
  5
91C
330
1F
100
AcDbEntity
  8
0
  6
Continuous
 62
     7
370
    15
100
AcDbLine
 10
-391.6360767426
 20
81.3706543763
 30
0.0
 11
-388.3022429261
 21
78.9145978316
 31
0.0
  0
LINE
  5
91D
330
1F
100
AcDbEntity
  8
0
  6
Continuous
 62
     7
370
    15
100
AcDbLine
 10
-391.178018462
 20
83.5449452222
 30
0.0
 11
-391.6360767426
 21
81.3706543763
 31
0.0
  0
LINE
  5
91E
330
1F
100
AcDbEntity
  8
0
  6
Continuous
 62
     7
370
    15
100
AcDbLine
 10
-391.178018462
 20
83.5449452222
 30
0.0
 11
-387.1366734958
 21
84.4472714004
 31
0.0
  0
LINE
  5
91F
330
1F
100
AcDbEntity
  8
0
  6
Continuous
 62
     7
370
    15
100
AcDbLine
 10
-390.1031662609
 20
88.4280480007
 30
0.0
 11
-386.8142178355
 21
85.9122022339
 31
0.0
  0
LINE
  5
920
330
1F
100
AcDbEntity
  8
0
  6
Continuous
 62
     7
370
    15
100
AcDbLine
 10
-389.6059276674
 20
90.5937146076
 30
0.0
 11
-390.1031662609
 21
88.4280480007
 31
0.0
  0
LINE
  5
921
330
1F
100
AcDbEntity
  8
0
  6
Continuous
 62
     7
370
    15
100
AcDbLine
 10
-389.6059276674
 20
90.5937146076
 30
0.0
 11
-385.5489506663
 21
91.422930671
 31
0.0
  0
LINE
  5
922
330
1F
100
AcDbEntity
  8
0
  6
Continuous
 62
     7
370
    15
100
AcDbLine
 10
-388.4430903896
 20
95.4566159499
 30
0.0
 11
-385.200099483
 21
92.8818010736
 31
0.0
  0
LINE
  5
923
330
1F
100
AcDbEntity
  8
0
  6
Continuous
 62
     7
370
    15
100
AcDbLine
 10
-387.9068335726
 20
97.6129523562
 30
0.0
 11
-388.4430903896
 21
95.4566159499
 31
0.0
  0
LINE
  5
924
330
1F
100
AcDbEntity
  8
0
  6
Continuous
 62
     7
370
    15
100
AcDbLine
 10
-387.9068335726
 20
97.6129523562
 30
0.0
 11
-383.8355470253
 21
98.3687879978
 31
0.0
  0
LINE
  5
925
330
1F
100
AcDbEntity
  8
0
  6
Continuous
 62
     7
370
    15
100
AcDbLine
 10
-386.6563902783
 20
102.4540670592
 30
0.0
 11
-383.460414037
 21
99.8211224087
 31
0.0
  0
LINE
  5
926
330
1F
100
AcDbEntity
  8
0
  6
Continuous
 62
     7
370
    15
100
AcDbLine
 10
-386.0812900462
 20
104.6003703448
 30
0.0
 11
-386.6563902783
 21
102.4540670592
 31
0.0
  0
LINE
  5
927
330
1F
100
AcDbEntity
  8
0
  6
Continuous
 62
     7
370
    15
100
AcDbLine
 10
-386.0812900462
 20
104.6003703448
 30
0.0
 11
-381.9970211061
 21
105.2825791783
 31
0.0
  0
LINE
  5
928
330
1F
100
AcDbEntity
  8
0
  6
Continuous
 62
     7
370
    15
100
AcDbLine
 10
-384.7436483535
 20
109.4181203074
 30
0.0
 11
-381.5957285983
 21
106.7279041671
 31
0.0
  0
LINE
  5
929
330
1F
100
AcDbEntity
  8
0
  6
Continuous
 62
     7
370
    15
100
AcDbLine
 10
-384.1298921768
 20
111.5536908229
 30
0.0
 11
-384.7436483535
 21
109.4181203074
 31
0.0
  0
LINE
  5
92A
330
1F
100
AcDbEntity
  8
0
  6
Continuous
 62
     7
370
    15
100
AcDbLine
 10
-384.1298921768
 20
111.5536908229
 30
0.0
 11
-380.0339722294
 21
112.1620504625
 31
0.0
  0
LINE
  5
92B
330
1F
100
AcDbEntity
  8
0
  6
Continuous
 62
     7
370
    15
100
AcDbLine
 10
-382.7054881288
 20
116.3465055604
 30
0.0
 11
-379.606651015
 21
113.5998948837
 31
0.0
  0
LINE
  5
92C
330
1F
100
AcDbEntity
  8
0
  6
Continuous
 62
     7
370
    15
100
AcDbLine
 10
-382.053276079
 20
118.4706471548
 30
0.0
 11
-382.7054881288
 21
116.3465055604
 31
0.0
  0
LINE
  5
92D
330
1F
100
AcDbEntity
  8
0
  6
Continuous
 62
     7
370
    15
100
AcDbLine
 10
-382.053276079
 20
118.4706471548
 30
0.0
 11
-377.9470403075
 21
119.0049592881
 31
0.0
  0
LINE
  5
92E
330
1F
100
AcDbEntity
  8
0
  6
Continuous
 62
     7
370
    15
100
AcDbLine
 10
-380.5425740012
 20
123.2369643108
 30
0.0
 11
-377.4938296842
 21
120.4348544349
 31
0.0
  0
LINE
  5
92F
330
1F
100
AcDbEntity
  8
0
  6
Continuous
 62
     7
370
    15
100
AcDbLine
 10
-379.8521186858
 20
125.3489845589
 30
0.0
 11
-380.5425740012
 21
123.2369643108
 31
0.0
  0
LINE
  5
930
330
1F
100
AcDbEntity
  8
0
  6
Continuous
 62
     7
370
    15
100
AcDbLine
 10
-379.8521186858
 20
125.3489845589
 30
0.0
 11
-375.7369056363
 21
125.8090750115
 31
0.0
  0
LINE
  5
931
330
1F
100
AcDbEntity
  8
0
  6
Continuous
 62
     7
370
    15
100
AcDbLine
 10
-378.2556110351
 20
130.0872504148
 30
0.0
 11
-375.2579533411
 21
127.2305547683
 31
0.0
  0
LINE
  5
932
330
1F
100
AcDbEntity
  8
0
  6
Continuous
 62
     7
370
    15
100
AcDbLine
 10
-377.5271375278
 20
132.1864608426
 30
0.0
 11
-378.2556110351
 21
130.0872504148
 31
0.0
  0
LINE
  5
933
330
1F
100
AcDbEntity
  8
0
  6
Continuous
 62
     7
370
    15
100
AcDbLine
 10
-377.5271375278
 20
132.1864608426
 30
0.0
 11
-373.4042886729
 21
132.5721796347
 31
0.0
  0
LINE
  5
934
330
1F
100
AcDbEntity
  8
0
  6
Continuous
 62
     7
370
    15
100
AcDbLine
 10
-375.845344732
 20
136.8951308238
 30
0.0
 11
-372.8997508341
 21
133.9847806291
 31
0.0
  0
LINE
  5
935
330
1F
100
AcDbEntity
  8
0
  6
Continuous
 62
     7
370
    15
100
AcDbLine
 10
-375.0790904998
 20
138.980847133
 30
0.0
 11
-375.845344732
 21
136.8951308238
 31
0.0
  0
LINE
  5
936
330
1F
100
AcDbEntity
  8
0
  6
Continuous
 62
     7
370
    15
100
AcDbLine
 10
-375.0790904998
 20
138.980847133
 30
0.0
 11
-370.9499498011
 21
139.2920685285
 31
0.0
  0
LINE
  5
937
330
1F
100
AcDbEntity
  8
0
  6
Continuous
 62
     7
370
    15
100
AcDbLine
 10
-373.3125607879
 20
143.6583863126
 30
0.0
 11
-370.4199908875
 21
140.6953302824
 31
0.0
  0
LINE
  5
938
330
1F
100
AcDbEntity
  8
0
  6
Continuous
 62
     7
370
    15
100
AcDbLine
 10
-372.5087756136
 20
145.7299286038
 30
0.0
 11
-373.3125607879
 21
143.6583863126
 31
0.0
  0
LINE
  5
939
330
1F
100
AcDbEntity
  8
0
  6
Continuous
 62
     7
370
    15
100
AcDbLine
 10
-372.5087756136
 20
145.7299286038
 30
0.0
 11
-368.3746890836
 21
145.9665511511
 31
0.0
  0
LINE
  5
93A
330
1F
100
AcDbEntity
  8
0
  6
Continuous
 62
     7
370
    15
100
AcDbLine
 10
-370.6580848369
 20
150.3748122029
 30
0.0
 11
-367.8194818506
 21
147.3600162308
 31
0.0
  0
LINE
  5
93B
330
1F
100
AcDbEntity
  8
0
  6
Continuous
 62
     7
370
    15
100
AcDbLine
 10
-369.8170307373
 20
152.4315051971
 30
0.0
 11
-370.6580848369
 21
150.3748122029
 31
0.0
  0
LINE
  5
93C
330
1F
100
AcDbEntity
  8
0
  6
Continuous
 62
     7
370
    15
100
AcDbLine
 10
-369.8170307373
 20
152.4315051971
 30
0.0
 11
-365.679346001
 21
152.5934517622
 31
0.0
  0
LINE
  5
93D
330
1F
100
AcDbEntity
  8
0
  6
Continuous
 62
     7
370
    15
100
AcDbLine
 10
-367.8827821819
 20
157.0422190818
 30
0.0
 11
-365.0990714343
 21
153.9766659276
 31
0.0
  0
LINE
  5
93E
330
1F
100
AcDbEntity
  8
0
  6
Continuous
 62
     7
370
    15
100
AcDbLine
 10
-367.0047333229
 20
159.0833923405
 30
0.0
 11
-367.8827821819
 21
157.0422190818
 31
0.0
  0
LINE
  5
93F
330
1F
100
AcDbEntity
  8
0
  6
Continuous
 62
     7
370
    15
100
AcDbLine
 10
-367.0047333229
 20
159.0833923405
 30
0.0
 11
-362.8647991781
 21
159.1706101322
 31
0.0
  0
LINE
  5
940
330
1F
100
AcDbEntity
  8
0
  6
Continuous
 62
     7
370
    15
100
AcDbLine
 10
-364.987557513
 20
163.6584335154
 30
0.0
 11
-362.2596464351
 21
160.5431224847
 31
0.0
  0
LINE
  5
941
330
1F
100
AcDbEntity
  8
0
  6
Continuous
 62
     7
370
    15
100
AcDbLine
 10
-364.0728001201
 20
165.6834216593
 30
0.0
 11
-364.987557513
 21
163.6584335154
 31
0.0
  0
LINE
  5
942
330
1F
100
AcDbEntity
  8
0
  6
Continuous
 62
     7
370
    15
100
AcDbLine
 10
-364.0728001201
 20
165.6834216593
 30
0.0
 11
-359.9319660977
 21
165.6958822465
 31
0.0
  0
LINE
  5
943
330
1F
100
AcDbEntity
  8
0
  6
Continuous
 62
     7
370
    15
100
AcDbLine
 10
-361.9733546123
 20
170.2212987576
 30
0.0
 11
-359.3021324454
 21
167.057245376
 31
0.0
  0
LINE
  5
944
330
1F
100
AcDbEntity
  8
0
  6
Continuous
 62
     7
370
    15
100
AcDbLine
 10
-361.022186877
 20
172.2294416834
 30
0.0
 11
-361.9733546123
 21
170.2212987576
 31
0.0
  0
LINE
  5
945
330
1F
100
AcDbEntity
  8
0
  6
Continuous
 62
     7
370
    15
100
AcDbLine
 10
-361.022186877
 20
172.2294416834
 30
0.0
 11
-356.8818028015
 21
172.1671410042
 31
0.0
  0
LINE
  5
946
330
1F
100
AcDbEntity
  8
0
  6
Continuous
 62
     7
370
    15
100
AcDbLine
 10
-358.8411560462
 20
176.7286754532
 30
0.0
 11
-356.2274935523
 21
173.5169111351
 31
0.0
  0
LINE
  5
947
330
1F
100
AcDbEntity
  8
0
  6
Continuous
 62
     7
370
    15
100
AcDbLine
 10
-357.8538880291
 20
178.7193185486
 30
0.0
 11
-358.8411560462
 21
176.7286754532
 31
0.0
  0
LINE
  5
948
330
1F
100
AcDbEntity
  8
0
  6
Continuous
 62
     7
370
    15
100
AcDbLine
 10
-357.8538880291
 20
178.7193185486
 30
0.0
 11
-353.7153035782
 21
178.5822769116
 31
0.0
  0
LINE
  5
949
330
1F
100
AcDbEntity
  8
0
  6
Continuous
 62
     7
370
    15
100
AcDbLine
 10
-355.5919828453
 20
183.1784423346
 30
0.0
 11
-353.0367320231
 21
179.9200140475
 31
0.0
  0
LINE
  5
94A
330
1F
100
AcDbEntity
  8
0
  6
Continuous
 62
     7
370
    15
100
AcDbLine
 10
-354.5689363749
 20
185.1509366921
 30
0.0
 11
-355.5919828453
 21
183.1784423346
 31
0.0
  0
LINE
  5
94B
330
1F
100
AcDbEntity
  8
0
  6
Continuous
 62
     7
370
    15
100
AcDbLine
 10
-354.5689363749
 20
185.1509366921
 30
0.0
 11
-350.4335006398
 21
184.9391987702
 31
0.0
  0
LINE
  5
94C
330
1F
100
AcDbEntity
  8
0
  6
Continuous
 62
     7
370
    15
100
AcDbLine
 10
-352.2268941714
 20
189.5684969144
 30
0.0
 11
-349.7308879787
 21
186.2644668368
 31
0.0
  0
LINE
  5
94D
330
1F
100
AcDbEntity
  8
0
  6
Continuous
 62
     7
370
    15
100
AcDbLine
 10
-351.1684027392
 20
191.5221995424
 30
0.0
 11
-352.2268941714
 21
189.5684969144
 31
0.0
  0
LINE
  5
94E
330
1F
100
AcDbEntity
  8
0
  6
Continuous
 62
     7
370
    15
100
AcDbLine
 10
-351.1684027392
 20
191.5221995424
 30
0.0
 11
-347.0374637845
 21
191.2358343575
 31
0.0
  0
LINE
  5
94F
330
1F
100
AcDbEntity
  8
0
  6
Continuous
 62
     7
370
    15
100
AcDbLine
 10
-348.7469869723
 20
195.8967561695
 30
0.0
 11
-346.3110390544
 21
192.5482013457
 31
0.0
  0
LINE
  5
950
330
1F
100
AcDbEntity
  8
0
  6
Continuous
 62
     7
370
    15
100
AcDbLine
 10
-347.6533956242
 20
197.8310302024
 30
0.0
 11
-348.7469869723
 21
195.8967561695
 31
0.0
  0
LINE
  5
951
330
1F
100
AcDbEntity
  8
0
  6
Continuous
 62
     7
370
    15
100
AcDbLine
 10
-347.6533956242
 20
197.8310302024
 30
0.0
 11
-343.5283000487
 21
197.4701311036
 31
0.0
  0
LINE
  5
952
330
1F
100
AcDbEntity
  8
0
  6
Continuous
 62
     7
370
    15
100
AcDbLine
 10
-345.1533956242
 20
202.1611572213
 30
0.0
 11
-342.7783000487
 21
198.7691692092
 31
0.0
  0
LINE
  5
953
330
1F
100
AcDbEntity
  8
0
  6
Continuous
 62
     7
370
    15
100
AcDbLine
 10
-344.0250608479
 20
204.0753721266
 30
0.0
 11
-345.1533956242
 21
202.1611572213
 31
0.0
  0
LINE
  5
954
330
1F
100
AcDbEntity
  8
0
  6
Continuous
 62
     7
370
    15
100
AcDbLine
 10
-344.0250608479
 20
204.0753721266
 30
0.0
 11
-339.9071533455
 21
203.6400567593
 31
0.0
  0
LINE
  5
955
330
1F
100
AcDbEntity
  8
0
  6
Continuous
 62
     7
370
    15
100
AcDbLine
 10
-341.447291562
 20
208.3596580074
 30
0.0
 11
-339.1338225598
 21
204.9253425235
 31
0.0
  0
LINE
  5
956
330
1F
100
AcDbEntity
  8
0
  6
Continuous
 62
     7
370
    15
100
AcDbLine
 10
-340.2845811708
 20
210.2531897914
 30
0.0
 11
-341.447291562
 21
208.3596580074
 31
0.0
  0
LINE
  5
957
330
1F
100
AcDbEntity
  8
0
  6
Continuous
 62
     7
370
    15
100
AcDbLine
 10
-340.2845811708
 20
210.2531897914
 30
0.0
 11
-336.1752040924
 21
209.7436000592
 31
0.0
  0
LINE
  5
958
330
1F
100
AcDbEntity
  8
0
  6
Continuous
 62
     7
370
    15
100
AcDbLine
 10
-337.6298828973
 20
214.4902379474
 30
0.0
 11
-335.3787946104
 21
211.0147145061
 31
0.0
  0
LINE
  5
959
330
1F
100
AcDbEntity
  8
0
  6
Continuous
 62
     7
370
    15
100
AcDbLine
 10
-336.4331759101
 20
216.3624693588
 30
0.0
 11
-337.6298828973
 21
214.4902379474
 31
0.0
  0
LINE
  5
95A
330
1F
100
AcDbEntity
  8
0
  6
Continuous
 62
     7
370
    15
100
AcDbLine
 10
-336.4331759101
 20
216.3624693588
 30
0.0
 11
-332.3336688259
 21
215.7787713773
 31
0.0
  0
LINE
  5
95B
330
1F
100
AcDbEntity
  8
0
  6
Continuous
 62
     7
370
    15
100
AcDbLine
 10
-333.7024140246
 20
220.5508986019
 30
0.0
 11
-331.5144402603
 21
217.0353001503
 31
0.0
  0
LINE
  5
95C
330
1F
100
AcDbEntity
  8
0
  6
Continuous
 62
     7
370
    15
100
AcDbLine
 10
-332.4721005427
 20
222.4012193328
 30
0.0
 11
-333.7024140246
 21
220.5508986019
 31
0.0
  0
LINE
  5
95D
330
1F
100
AcDbEntity
  8
0
  6
Continuous
 62
     7
370
    15
100
AcDbLine
 10
-332.4721005427
 20
222.4012193328
 30
0.0
 11
-328.3837998053
 21
221.7436033752
 31
0.0
  0
LINE
  5
95E
330
1F
100
AcDbEntity
  8
0
  6
Continuous
 62
     7
370
    15
100
AcDbLine
 10
-329.6661652159
 20
226.5396643236
 30
0.0
 11
-327.5420192073
 21
222.9851368724
 31
0.0
  0
LINE
  5
95F
330
1F
100
AcDbEntity
  8
0
  6
Continuous
 62
     7
370
    15
100
AcDbLine
 10
-328.4026462954
 20
228.3674712085
 30
0.0
 11
-329.6661652159
 21
226.5396643236
 31
0.0
  0
LINE
  5
960
330
1F
100
AcDbEntity
  8
0
  6
Continuous
 62
     7
370
    15
100
AcDbLine
 10
-328.4026462954
 20
228.3674712085
 30
0.0
 11
-324.3268846045
 21
227.6361516436
 31
0.0
  0
LINE
  5
961
330
1F
100
AcDbEntity
  8
0
  6
Continuous
 62
     7
370
    15
100
AcDbLine
 10
-325.5224522029
 20
232.4545829013
 30
0.0
 11
-323.4628263768
 21
228.8622851515
 31
0.0
  0
LINE
  5
962
330
1F
100
AcDbEntity
  8
0
  6
Continuous
 62
     7
370
    15
100
AcDbLine
 10
-324.2261397244
 20
234.2592801138
 30
0.0
 11
-325.5224522029
 21
232.4545829013
 31
0.0
  0
LINE
  5
963
330
1F
100
AcDbEntity
  8
0
  6
Continuous
 62
     7
370
    15
100
AcDbLine
 10
-324.2261397244
 20
234.2592801138
 30
0.0
 11
-320.1642456921
 21
233.4544953364
 31
0.0
  0
LINE
  5
964
330
1F
100
AcDbEntity
  8
0
  6
Continuous
 62
     7
370
    15
100
AcDbLine
 10
-321.2726257485
 20
238.2937261965
 30
0.0
 11
-319.2781914994
 21
234.6648291612
 31
0.0
  0
LINE
  5
965
330
1F
100
AcDbEntity
  8
0
  6
Continuous
 62
     7
370
    15
100
AcDbLine
 10
-319.9439422824
 20
240.0747254435
 30
0.0
 11
-321.2726257485
 21
238.2937261965
 31
0.0
  0
LINE
  5
966
330
1F
100
AcDbEntity
  8
0
  6
Continuous
 62
     7
370
    15
100
AcDbLine
 10
-319.9439422824
 20
240.0747254435
 30
0.0
 11
-315.8972400005
 21
239.1967377965
 31
0.0
  0
LINE
  5
967
330
1F
100
AcDbEntity
  8
0
  6
Continuous
 62
     7
370
    15
100
AcDbLine
 10
-316.9180712065
 20
244.055190772
 30
0.0
 11
-314.9894786777
 21
240.390877395
 31
0.0
  0
LINE
  5
968
330
1F
100
AcDbEntity
  8
0
  6
Continuous
 62
     7
370
    15
100
AcDbLine
 10
-315.5574498755
 20
245.8119114854
 30
0.0
 11
-316.9180712065
 21
244.055190772
 31
0.0
  0
LINE
  5
969
330
1F
100
AcDbEntity
  8
0
  6
Continuous
 62
     7
370
    15
100
AcDbLine
 10
-315.5574498755
 20
245.8119114854
 30
0.0
 11
-311.5272584833
 21
244.861007174
 31
0.0
  0
LINE
  5
96A
330
1F
100
AcDbEntity
  8
0
  6
Continuous
 62
     7
370
    15
100
AcDbLine
 10
-312.4602080694
 20
249.7370985121
 30
0.0
 11
-310.5980859415
 21
246.038563282
 31
0.0
  0
LINE
  5
96B
330
1F
100
AcDbEntity
  8
0
  6
Continuous
 62
     7
370
    15
100
AcDbLine
 10
-311.0680924074
 20
251.4689680379
 30
0.0
 11
-312.4602080694
 21
249.7370985121
 31
0.0
  0
LINE
  5
96C
330
1F
100
AcDbEntity
  8
0
  6
Continuous
 62
     7
370
    15
100
AcDbLine
 10
-311.0680924074
 20
251.4689680379
 30
0.0
 11
-307.0557256622
 21
250.445457037
 31
0.0
  0
LINE
  5
96D
330
1F
100
AcDbEntity
  8
0
  6
Continuous
 62
     7
370
    15
100
AcDbLine
 10
-307.9004895066
 20
255.3375972347
 30
0.0
 11
-306.1054447919
 21
251.6060457961
 31
0.0
  0
LINE
  5
96E
330
1F
100
AcDbEntity
  8
0
  6
Continuous
 62
     7
370
    15
100
AcDbLine
 10
-306.4773333138
 20
257.0440510202
 30
0.0
 11
-307.9004895066
 21
255.3375972347
 31
0.0
  0
LINE
  5
96F
330
1F
100
AcDbEntity
  8
0
  6
Continuous
 62
     7
370
    15
100
AcDbLine
 10
-306.4773333138
 20
257.0440510202
 30
0.0
 11
-302.4840991623
 21
255.9482669727
 31
0.0
  0
LINE
  5
970
330
1F
100
AcDbEntity
  8
0
  6
Continuous
 62
     7
370
    15
100
AcDbLine
 10
-303.2404018899
 20
260.8548612958
 30
0.0
 11
-301.5130197352
 21
257.0915100554
 31
0.0
  0
LINE
  5
971
330
1F
100
AcDbEntity
  8
0
  6
Continuous
 62
     7
370
    15
100
AcDbLine
 10
-301.7866690852
 20
262.535343073
 30
0.0
 11
-303.2404018899
 21
260.8548612958
 31
0.0
  0
LINE
  5
972
330
1F
100
AcDbEntity
  8
0
  6
Continuous
 62
     7
370
    15
100
AcDbLine
 10
-301.7866690852
 20
262.535343073
 30
0.0
 11
-297.8138692375
 21
261.3676431814
 31
0.0
  0
LINE
  5
973
330
1F
100
AcDbEntity
  8
0
  6
Continuous
 62
     7
370
    15
100
AcDbLine
 10
-298.4814643094
 20
266.2870921838
 30
0.0
 11
-296.8223078047
 21
262.4931679146
 31
0.0
  0
LINE
  5
974
330
1F
100
AcDbEntity
  8
0
  6
Continuous
 62
     7
370
    15
100
AcDbLine
 10
-296.997628779
 20
267.9410541512
 30
0.0
 11
-298.4814643094
 21
266.2870921838
 31
0.0
  0
LINE
  5
975
330
1F
100
AcDbEntity
  8
0
  6
Continuous
 62
     7
370
    15
100
AcDbLine
 10
-296.997628779
 20
267.9410541512
 30
0.0
 11
-293.0465582838
 21
266.7018190609
 31
0.0
  0
LINE
  5
976
330
1F
100
AcDbEntity
  8
0
  6
Continuous
 62
     7
370
    15
100
AcDbLine
 10
-293.6252280783
 20
271.6325191061
 30
0.0
 11
-292.0348380736
 21
267.8092585474
 31
0.0
  0
LINE
  5
977
330
1F
100
AcDbEntity
  8
0
  6
Continuous
 62
     7
370
    15
100
AcDbLine
 10
-292.1117735212
 20
273.2594221071
 30
0.0
 11
-293.6252280783
 21
271.6325191061
 31
0.0
  0
LINE
  5
978
330
1F
100
AcDbEntity
  8
0
  6
Continuous
 62
     7
370
    15
100
AcDbLine
 10
-292.1117735212
 20
273.2594221071
 30
0.0
 11
-288.183720344
 21
271.9490557826
 31
0.0
  0
LINE
  5
979
330
1F
100
AcDbEntity
  8
0
  6
Continuous
 62
     7
370
    15
100
AcDbLine
 10
-288.6732762269
 20
276.8893995667
 30
0.0
 11
-287.1521711557
 21
273.0380490205
 31
0.0
  0
LINE
  5
97A
330
1F
100
AcDbEntity
  8
0
  6
Continuous
 62
     7
370
    15
100
AcDbLine
 10
-287.1306959973
 20
278.4887132652
 30
0.0
 11
-288.6732762269
 21
276.8893995667
 31
0.0
  0
LINE
  5
97B
330
1F
100
AcDbEntity
  8
0
  6
Continuous
 62
     7
370
    15
100
AcDbLine
 10
-287.1306959973
 20
278.4887132652
 30
0.0
 11
-283.2269406005
 21
277.1076428583
 31
0.0
  0
LINE
  5
97C
330
1F
100
AcDbEntity
  8
0
  6
Continuous
 62
     7
370
    15
100
AcDbLine
 10
-283.627222987
 20
282.0560199334
 30
0.0
 11
-282.1758986974
 21
278.1778348588
 31
0.0
  0
LINE
  5
97D
330
1F
100
AcDbEntity
  8
0
  6
Continuous
 62
     7
370
    15
100
AcDbLine
 10
-282.0560199334
 20
283.627222987
 30
0.0
 11
-283.627222987
 21
282.0560199334
 31
0.0
  0
LINE
  5
97E
330
1F
100
AcDbEntity
  8
0
  6
Continuous
 62
     7
370
    15
100
AcDbLine
 10
-282.0560199334
 20
283.627222987
 30
0.0
 11
-278.1778348587
 21
282.1758986974
 31
0.0
  0
LINE
  5
97F
330
1F
100
AcDbEntity
  8
0
  6
Continuous
 62
     7
370
    15
100
AcDbLine
 10
-278.4887132651
 20
287.1306959973
 30
0.0
 11
-277.1076428583
 21
283.2269406005
 31
0.0
  0
LINE
  5
980
330
1F
100
AcDbEntity
  8
0
  6
Continuous
 62
     7
370
    15
100
AcDbLine
 10
-276.8893995667
 20
288.673276227
 30
0.0
 11
-278.4887132651
 21
287.1306959973
 31
0.0
  0
LINE
  5
981
330
1F
100
AcDbEntity
  8
0
  6
Continuous
 62
     7
370
    15
100
AcDbLine
 10
-276.8893995667
 20
288.673276227
 30
0.0
 11
-273.0380490205
 21
287.1521711557
 31
0.0
  0
LINE
  5
982
330
1F
100
AcDbEntity
  8
0
  6
Continuous
 62
     7
370
    15
100
AcDbLine
 10
-273.2594221071
 20
292.1117735212
 30
0.0
 11
-271.9490557826
 21
288.183720344
 31
0.0
  0
LINE
  5
983
330
1F
100
AcDbEntity
  8
0
  6
Continuous
 62
     7
370
    15
100
AcDbLine
 10
-271.6325191061
 20
293.6252280783
 30
0.0
 11
-273.2594221071
 21
292.1117735212
 31
0.0
  0
LINE
  5
984
330
1F
100
AcDbEntity
  8
0
  6
Continuous
 62
     7
370
    15
100
AcDbLine
 10
-271.6325191061
 20
293.6252280783
 30
0.0
 11
-267.8092585474
 21
292.0348380736
 31
0.0
  0
LINE
  5
985
330
1F
100
AcDbEntity
  8
0
  6
Continuous
 62
     7
370
    15
100
AcDbLine
 10
-267.9410541512
 20
296.997628779
 30
0.0
 11
-266.7018190609
 21
293.0465582838
 31
0.0
  0
LINE
  5
986
330
1F
100
AcDbEntity
  8
0
  6
Continuous
 62
     7
370
    15
100
AcDbLine
 10
-266.2870921838
 20
298.4814643094
 30
0.0
 11
-267.9410541512
 21
296.997628779
 31
0.0
  0
LINE
  5
987
330
1F
100
AcDbEntity
  8
0
  6
Continuous
 62
     7
370
    15
100
AcDbLine
 10
-266.2870921838
 20
298.4814643094
 30
0.0
 11
-262.4931679146
 21
296.8223078047
 31
0.0
  0
LINE
  5
988
330
1F
100
AcDbEntity
  8
0
  6
Continuous
 62
     7
370
    15
100
AcDbLine
 10
-262.535343073
 20
301.7866690852
 30
0.0
 11
-261.3676431814
 21
297.8138692375
 31
0.0
  0
LINE
  5
989
330
1F
100
AcDbEntity
  8
0
  6
Continuous
 62
     7
370
    15
100
AcDbLine
 10
-260.8548612958
 20
303.2404018899
 30
0.0
 11
-262.535343073
 21
301.7866690852
 31
0.0
  0
LINE
  5
98A
330
1F
100
AcDbEntity
  8
0
  6
Continuous
 62
     7
370
    15
100
AcDbLine
 10
-260.8548612958
 20
303.2404018899
 30
0.0
 11
-257.0915100554
 21
301.5130197352
 31
0.0
  0
LINE
  5
98B
330
1F
100
AcDbEntity
  8
0
  6
Continuous
 62
     7
370
    15
100
AcDbLine
 10
-257.0440510202
 20
306.4773333138
 30
0.0
 11
-255.9482669727
 21
302.4840991623
 31
0.0
  0
LINE
  5
98C
330
1F
100
AcDbEntity
  8
0
  6
Continuous
 62
     7
370
    15
100
AcDbLine
 10
-255.3375972347
 20
307.9004895066
 30
0.0
 11
-257.0440510202
 21
306.4773333138
 31
0.0
  0
LINE
  5
98D
330
1F
100
AcDbEntity
  8
0
  6
Continuous
 62
     7
370
    15
100
AcDbLine
 10
-255.3375972347
 20
307.9004895066
 30
0.0
 11
-251.6060457961
 21
306.1054447919
 31
0.0
  0
LINE
  5
98E
330
1F
100
AcDbEntity
  8
0
  6
Continuous
 62
     7
370
    15
100
AcDbLine
 10
-251.4689680379
 20
311.0680924074
 30
0.0
 11
-250.445457037
 21
307.0557256622
 31
0.0
  0
LINE
  5
98F
330
1F
100
AcDbEntity
  8
0
  6
Continuous
 62
     7
370
    15
100
AcDbLine
 10
-249.7370985121
 20
312.4602080694
 30
0.0
 11
-251.4689680379
 21
311.0680924074
 31
0.0
  0
LINE
  5
990
330
1F
100
AcDbEntity
  8
0
  6
Continuous
 62
     7
370
    15
100
AcDbLine
 10
-249.7370985121
 20
312.4602080694
 30
0.0
 11
-246.038563282
 21
310.5980859415
 31
0.0
  0
LINE
  5
991
330
1F
100
AcDbEntity
  8
0
  6
Continuous
 62
     7
370
    15
100
AcDbLine
 10
-245.8119114853
 20
315.5574498755
 30
0.0
 11
-244.861007174
 21
311.5272584833
 31
0.0
  0
LINE
  5
992
330
1F
100
AcDbEntity
  8
0
  6
Continuous
 62
     7
370
    15
100
AcDbLine
 10
-244.055190772
 20
316.9180712065
 30
0.0
 11
-245.8119114853
 21
315.5574498755
 31
0.0
  0
LINE
  5
993
330
1F
100
AcDbEntity
  8
0
  6
Continuous
 62
     7
370
    15
100
AcDbLine
 10
-244.055190772
 20
316.9180712065
 30
0.0
 11
-240.390877395
 21
314.9894786777
 31
0.0
  0
LINE
  5
994
330
1F
100
AcDbEntity
  8
0
  6
Continuous
 62
     7
370
    15
100
AcDbLine
 10
-240.0747254435
 20
319.9439422824
 30
0.0
 11
-239.1967377964
 21
315.8972400005
 31
0.0
  0
LINE
  5
995
330
1F
100
AcDbEntity
  8
0
  6
Continuous
 62
     7
370
    15
100
AcDbLine
 10
-238.2937261965
 20
321.2726257486
 30
0.0
 11
-240.0747254435
 21
319.9439422824
 31
0.0
  0
LINE
  5
996
330
1F
100
AcDbEntity
  8
0
  6
Continuous
 62
     7
370
    15
100
AcDbLine
 10
-238.2937261965
 20
321.2726257486
 30
0.0
 11
-234.6648291612
 21
319.2781914994
 31
0.0
  0
LINE
  5
997
330
1F
100
AcDbEntity
  8
0
  6
Continuous
 62
     7
370
    15
100
AcDbLine
 10
-234.2592801138
 20
324.2261397244
 30
0.0
 11
-233.4544953364
 21
320.1642456921
 31
0.0
  0
LINE
  5
998
330
1F
100
AcDbEntity
  8
0
  6
Continuous
 62
     7
370
    15
100
AcDbLine
 10
-232.4545829013
 20
325.5224522029
 30
0.0
 11
-234.2592801138
 21
324.2261397244
 31
0.0
  0
LINE
  5
999
330
1F
100
AcDbEntity
  8
0
  6
Continuous
 62
     7
370
    15
100
AcDbLine
 10
-232.4545829013
 20
325.5224522029
 30
0.0
 11
-228.8622851515
 21
323.4628263768
 31
0.0
  0
LINE
  5
99A
330
1F
100
AcDbEntity
  8
0
  6
Continuous
 62
     7
370
    15
100
AcDbLine
 10
-228.3674712085
 20
328.4026462954
 30
0.0
 11
-227.6361516436
 21
324.3268846045
 31
0.0
  0
LINE
  5
99B
330
1F
100
AcDbEntity
  8
0
  6
Continuous
 62
     7
370
    15
100
AcDbLine
 10
-226.5396643236
 20
329.6661652159
 30
0.0
 11
-228.3674712085
 21
328.4026462954
 31
0.0
  0
LINE
  5
99C
330
1F
100
AcDbEntity
  8
0
  6
Continuous
 62
     7
370
    15
100
AcDbLine
 10
-226.5396643236
 20
329.6661652159
 30
0.0
 11
-222.9851368724
 21
327.5420192073
 31
0.0
  0
LINE
  5
99D
330
1F
100
AcDbEntity
  8
0
  6
Continuous
 62
     7
370
    15
100
AcDbLine
 10
-222.4012193328
 20
332.4721005427
 30
0.0
 11
-221.7436033752
 21
328.3837998053
 31
0.0
  0
LINE
  5
99E
330
1F
100
AcDbEntity
  8
0
  6
Continuous
 62
     7
370
    15
100
AcDbLine
 10
-220.5508986019
 20
333.7024140247
 30
0.0
 11
-222.4012193328
 21
332.4721005427
 31
0.0
  0
LINE
  5
99F
330
1F
100
AcDbEntity
  8
0
  6
Continuous
 62
     7
370
    15
100
AcDbLine
 10
-220.5508986019
 20
333.7024140247
 30
0.0
 11
-217.0353001503
 21
331.5144402603
 31
0.0
  0
LINE
  5
9A0
330
1F
100
AcDbEntity
  8
0
  6
Continuous
 62
     7
370
    15
100
AcDbLine
 10
-216.3624693588
 20
336.4331759101
 30
0.0
 11
-215.7787713773
 21
332.3336688259
 31
0.0
  0
LINE
  5
9A1
330
1F
100
AcDbEntity
  8
0
  6
Continuous
 62
     7
370
    15
100
AcDbLine
 10
-214.4902379474
 20
337.6298828973
 30
0.0
 11
-216.3624693588
 21
336.4331759101
 31
0.0
  0
LINE
  5
9A2
330
1F
100
AcDbEntity
  8
0
  6
Continuous
 62
     7
370
    15
100
AcDbLine
 10
-214.4902379474
 20
337.6298828973
 30
0.0
 11
-211.0147145061
 21
335.3787946104
 31
0.0
  0
LINE
  5
9A3
330
1F
100
AcDbEntity
  8
0
  6
Continuous
 62
     7
370
    15
100
AcDbLine
 10
-210.2531897913
 20
340.2845811708
 30
0.0
 11
-209.7436000592
 21
336.1752040924
 31
0.0
  0
LINE
  5
9A4
330
1F
100
AcDbEntity
  8
0
  6
Continuous
 62
     7
370
    15
100
AcDbLine
 10
-208.3596580074
 20
341.447291562
 30
0.0
 11
-210.2531897913
 21
340.2845811708
 31
0.0
  0
LINE
  5
9A5
330
1F
100
AcDbEntity
  8
0
  6
Continuous
 62
     7
370
    15
100
AcDbLine
 10
-208.3596580074
 20
341.447291562
 30
0.0
 11
-204.9253425235
 21
339.1338225598
 31
0.0
  0
LINE
  5
9A6
330
1F
100
AcDbEntity
  8
0
  6
Continuous
 62
     7
370
    15
100
AcDbLine
 10
-204.0753721265
 20
344.0250608479
 30
0.0
 11
-203.6400567593
 21
339.9071533455
 31
0.0
  0
LINE
  5
9A7
330
1F
100
AcDbEntity
  8
0
  6
Continuous
 62
     7
370
    15
100
AcDbLine
 10
-202.1611572213
 20
345.1533956242
 30
0.0
 11
-204.0753721265
 21
344.0250608479
 31
0.0
  0
LINE
  5
9A8
330
1F
100
AcDbEntity
  8
0
  6
Continuous
 62
     7
370
    15
100
AcDbLine
 10
-202.1611572213
 20
345.1533956242
 30
0.0
 11
-198.7691692092
 21
342.7783000487
 31
0.0
  0
LINE
  5
9A9
330
1F
100
AcDbEntity
  8
0
  6
Continuous
 62
     7
370
    15
100
AcDbLine
 10
-197.8310302024
 20
347.6533956242
 30
0.0
 11
-197.4701311036
 21
343.5283000487
 31
0.0
  0
LINE
  5
9AA
330
1F
100
AcDbEntity
  8
0
  6
Continuous
 62
     7
370
    15
100
AcDbLine
 10
-195.8967561695
 20
348.7469869723
 30
0.0
 11
-197.8310302024
 21
347.6533956242
 31
0.0
  0
LINE
  5
9AB
330
1F
100
AcDbEntity
  8
0
  6
Continuous
 62
     7
370
    15
100
AcDbLine
 10
-195.8967561695
 20
348.7469869723
 30
0.0
 11
-192.5482013457
 21
346.3110390544
 31
0.0
  0
LINE
  5
9AC
330
1F
100
AcDbEntity
  8
0
  6
Continuous
 62
     7
370
    15
100
AcDbLine
 10
-191.5221995424
 20
351.1684027392
 30
0.0
 11
-191.2358343575
 21
347.0374637845
 31
0.0
  0
LINE
  5
9AD
330
1F
100
AcDbEntity
  8
0
  6
Continuous
 62
     7
370
    15
100
AcDbLine
 10
-189.5684969143
 20
352.2268941714
 30
0.0
 11
-191.5221995424
 21
351.1684027392
 31
0.0
  0
LINE
  5
9AE
330
1F
100
AcDbEntity
  8
0
  6
Continuous
 62
     7
370
    15
100
AcDbLine
 10
-189.5684969143
 20
352.2268941714
 30
0.0
 11
-186.2644668368
 21
349.7308879787
 31
0.0
  0
LINE
  5
9AF
330
1F
100
AcDbEntity
  8
0
  6
Continuous
 62
     7
370
    15
100
AcDbLine
 10
-185.1509366921
 20
354.5689363749
 30
0.0
 11
-184.9391987702
 21
350.4335006398
 31
0.0
  0
LINE
  5
9B0
330
1F
100
AcDbEntity
  8
0
  6
Continuous
 62
     7
370
    15
100
AcDbLine
 10
-183.1784423346
 20
355.5919828453
 30
0.0
 11
-185.1509366921
 21
354.5689363749
 31
0.0
  0
LINE
  5
9B1
330
1F
100
AcDbEntity
  8
0
  6
Continuous
 62
     7
370
    15
100
AcDbLine
 10
-183.1784423346
 20
355.5919828453
 30
0.0
 11
-179.9200140475
 21
353.0367320231
 31
0.0
  0
LINE
  5
9B2
330
1F
100
AcDbEntity
  8
0
  6
Continuous
 62
     7
370
    15
100
AcDbLine
 10
-178.7193185486
 20
357.8538880291
 30
0.0
 11
-178.5822769116
 21
353.7153035782
 31
0.0
  0
LINE
  5
9B3
330
1F
100
AcDbEntity
  8
0
  6
Continuous
 62
     7
370
    15
100
AcDbLine
 10
-176.7286754532
 20
358.8411560462
 30
0.0
 11
-178.7193185486
 21
357.8538880291
 31
0.0
  0
LINE
  5
9B4
330
1F
100
AcDbEntity
  8
0
  6
Continuous
 62
     7
370
    15
100
AcDbLine
 10
-176.7286754532
 20
358.8411560462
 30
0.0
 11
-173.5169111351
 21
356.2274935523
 31
0.0
  0
LINE
  5
9B5
330
1F
100
AcDbEntity
  8
0
  6
Continuous
 62
     7
370
    15
100
AcDbLine
 10
-172.2294416834
 20
361.022186877
 30
0.0
 11
-172.1671410041
 21
356.8818028015
 31
0.0
  0
LINE
  5
9B6
330
1F
100
AcDbEntity
  8
0
  6
Continuous
 62
     7
370
    15
100
AcDbLine
 10
-170.2212987576
 20
361.9733546123
 30
0.0
 11
-172.2294416834
 21
361.022186877
 31
0.0
  0
LINE
  5
9B7
330
1F
100
AcDbEntity
  8
0
  6
Continuous
 62
     7
370
    15
100
AcDbLine
 10
-170.2212987576
 20
361.9733546123
 30
0.0
 11
-167.057245376
 21
359.3021324454
 31
0.0
  0
LINE
  5
9B8
330
1F
100
AcDbEntity
  8
0
  6
Continuous
 62
     7
370
    15
100
AcDbLine
 10
-165.6834216593
 20
364.0728001201
 30
0.0
 11
-165.6958822465
 21
359.9319660977
 31
0.0
  0
LINE
  5
9B9
330
1F
100
AcDbEntity
  8
0
  6
Continuous
 62
     7
370
    15
100
AcDbLine
 10
-163.6584335154
 20
364.987557513
 30
0.0
 11
-165.6834216593
 21
364.0728001201
 31
0.0
  0
LINE
  5
9BA
330
1F
100
AcDbEntity
  8
0
  6
Continuous
 62
     7
370
    15
100
AcDbLine
 10
-163.6584335154
 20
364.987557513
 30
0.0
 11
-160.5431224847
 21
362.2596464351
 31
0.0
  0
LINE
  5
9BB
330
1F
100
AcDbEntity
  8
0
  6
Continuous
 62
     7
370
    15
100
AcDbLine
 10
-159.0833923405
 20
367.0047333229
 30
0.0
 11
-159.1706101322
 21
362.8647991781
 31
0.0
  0
LINE
  5
9BC
330
1F
100
AcDbEntity
  8
0
  6
Continuous
 62
     7
370
    15
100
AcDbLine
 10
-157.0422190818
 20
367.8827821819
 30
0.0
 11
-159.0833923405
 21
367.0047333229
 31
0.0
  0
LINE
  5
9BD
330
1F
100
AcDbEntity
  8
0
  6
Continuous
 62
     7
370
    15
100
AcDbLine
 10
-157.0422190818
 20
367.8827821819
 30
0.0
 11
-153.9766659276
 21
365.0990714343
 31
0.0
  0
LINE
  5
9BE
330
1F
100
AcDbEntity
  8
0
  6
Continuous
 62
     7
370
    15
100
AcDbLine
 10
-152.4315051971
 20
369.8170307373
 30
0.0
 11
-152.5934517622
 21
365.679346001
 31
0.0
  0
LINE
  5
9BF
330
1F
100
AcDbEntity
  8
0
  6
Continuous
 62
     7
370
    15
100
AcDbLine
 10
-150.3748122029
 20
370.6580848369
 30
0.0
 11
-152.4315051971
 21
369.8170307373
 31
0.0
  0
LINE
  5
9C0
330
1F
100
AcDbEntity
  8
0
  6
Continuous
 62
     7
370
    15
100
AcDbLine
 10
-150.3748122029
 20
370.6580848369
 30
0.0
 11
-147.3600162308
 21
367.8194818506
 31
0.0
  0
LINE
  5
9C1
330
1F
100
AcDbEntity
  8
0
  6
Continuous
 62
     7
370
    15
100
AcDbLine
 10
-145.7299286038
 20
372.5087756136
 30
0.0
 11
-145.9665511511
 21
368.3746890836
 31
0.0
  0
LINE
  5
9C2
330
1F
100
AcDbEntity
  8
0
  6
Continuous
 62
     7
370
    15
100
AcDbLine
 10
-143.6583863126
 20
373.3125607879
 30
0.0
 11
-145.7299286038
 21
372.5087756136
 31
0.0
  0
LINE
  5
9C3
330
1F
100
AcDbEntity
  8
0
  6
Continuous
 62
     7
370
    15
100
AcDbLine
 10
-143.6583863126
 20
373.3125607879
 30
0.0
 11
-140.6953302824
 21
370.4199908875
 31
0.0
  0
LINE
  5
9C4
330
1F
100
AcDbEntity
  8
0
  6
Continuous
 62
     7
370
    15
100
AcDbLine
 10
-138.980847133
 20
375.0790904999
 30
0.0
 11
-139.2920685285
 21
370.9499498011
 31
0.0
  0
LINE
  5
9C5
330
1F
100
AcDbEntity
  8
0
  6
Continuous
 62
     7
370
    15
100
AcDbLine
 10
-136.8951308238
 20
375.845344732
 30
0.0
 11
-138.980847133
 21
375.0790904999
 31
0.0
  0
LINE
  5
9C6
330
1F
100
AcDbEntity
  8
0
  6
Continuous
 62
     7
370
    15
100
AcDbLine
 10
-136.8951308238
 20
375.845344732
 30
0.0
 11
-133.9847806291
 21
372.8997508341
 31
0.0
  0
LINE
  5
9C7
330
1F
100
AcDbEntity
  8
0
  6
Continuous
 62
     7
370
    15
100
AcDbLine
 10
-132.1864608425
 20
377.5271375278
 30
0.0
 11
-132.5721796347
 21
373.4042886729
 31
0.0
  0
LINE
  5
9C8
330
1F
100
AcDbEntity
  8
0
  6
Continuous
 62
     7
370
    15
100
AcDbLine
 10
-130.0872504148
 20
378.2556110351
 30
0.0
 11
-132.1864608425
 21
377.5271375278
 31
0.0
  0
LINE
  5
9C9
330
1F
100
AcDbEntity
  8
0
  6
Continuous
 62
     7
370
    15
100
AcDbLine
 10
-130.0872504148
 20
378.2556110351
 30
0.0
 11
-127.2305547683
 21
375.2579533411
 31
0.0
  0
LINE
  5
9CA
330
1F
100
AcDbEntity
  8
0
  6
Continuous
 62
     7
370
    15
100
AcDbLine
 10
-125.3489845589
 20
379.8521186858
 30
0.0
 11
-125.8090750115
 21
375.7369056363
 31
0.0
  0
LINE
  5
9CB
330
1F
100
AcDbEntity
  8
0
  6
Continuous
 62
     7
370
    15
100
AcDbLine
 10
-123.2369643108
 20
380.5425740012
 30
0.0
 11
-125.3489845589
 21
379.8521186858
 31
0.0
  0
LINE
  5
9CC
330
1F
100
AcDbEntity
  8
0
  6
Continuous
 62
     7
370
    15
100
AcDbLine
 10
-123.2369643108
 20
380.5425740012
 30
0.0
 11
-120.4348544349
 21
377.4938296842
 31
0.0
  0
LINE
  5
9CD
330
1F
100
AcDbEntity
  8
0
  6
Continuous
 62
     7
370
    15
100
AcDbLine
 10
-118.4706471548
 20
382.053276079
 30
0.0
 11
-119.0049592881
 21
377.9470403075
 31
0.0
  0
LINE
  5
9CE
330
1F
100
AcDbEntity
  8
0
  6
Continuous
 62
     7
370
    15
100
AcDbLine
 10
-116.3465055604
 20
382.7054881288
 30
0.0
 11
-118.4706471548
 21
382.053276079
 31
0.0
  0
LINE
  5
9CF
330
1F
100
AcDbEntity
  8
0
  6
Continuous
 62
     7
370
    15
100
AcDbLine
 10
-116.3465055604
 20
382.7054881288
 30
0.0
 11
-113.5998948837
 21
379.606651015
 31
0.0
  0
LINE
  5
9D0
330
1F
100
AcDbEntity
  8
0
  6
Continuous
 62
     7
370
    15
100
AcDbLine
 10
-111.5536908229
 20
384.1298921768
 30
0.0
 11
-112.1620504625
 21
380.0339722294
 31
0.0
  0
LINE
  5
9D1
330
1F
100
AcDbEntity
  8
0
  6
Continuous
 62
     7
370
    15
100
AcDbLine
 10
-109.4181203074
 20
384.7436483535
 30
0.0
 11
-111.5536908229
 21
384.1298921768
 31
0.0
  0
LINE
  5
9D2
330
1F
100
AcDbEntity
  8
0
  6
Continuous
 62
     7
370
    15
100
AcDbLine
 10
-109.4181203074
 20
384.7436483535
 30
0.0
 11
-106.7279041671
 21
381.5957285983
 31
0.0
  0
LINE
  5
9D3
330
1F
100
AcDbEntity
  8
0
  6
Continuous
 62
     7
370
    15
100
AcDbLine
 10
-104.6003703448
 20
386.0812900462
 30
0.0
 11
-105.2825791783
 21
381.9970211061
 31
0.0
  0
LINE
  5
9D4
330
1F
100
AcDbEntity
  8
0
  6
Continuous
 62
     7
370
    15
100
AcDbLine
 10
-102.4540670592
 20
386.6563902783
 30
0.0
 11
-104.6003703448
 21
386.0812900462
 31
0.0
  0
LINE
  5
9D5
330
1F
100
AcDbEntity
  8
0
  6
Continuous
 62
     7
370
    15
100
AcDbLine
 10
-102.4540670592
 20
386.6563902783
 30
0.0
 11
-99.8211224087
 21
383.460414037
 31
0.0
  0
LINE
  5
9D6
330
1F
100
AcDbEntity
  8
0
  6
Continuous
 62
     7
370
    15
100
AcDbLine
 10
-97.6129523562
 20
387.9068335726
 30
0.0
 11
-98.3687879978
 21
383.8355470253
 31
0.0
  0
LINE
  5
9D7
330
1F
100
AcDbEntity
  8
0
  6
Continuous
 62
     7
370
    15
100
AcDbLine
 10
-95.4566159499
 20
388.4430903896
 30
0.0
 11
-97.6129523562
 21
387.9068335726
 31
0.0
  0
LINE
  5
9D8
330
1F
100
AcDbEntity
  8
0
  6
Continuous
 62
     7
370
    15
100
AcDbLine
 10
-95.4566159499
 20
388.4430903896
 30
0.0
 11
-92.8818010736
 21
385.200099483
 31
0.0
  0
LINE
  5
9D9
330
1F
100
AcDbEntity
  8
0
  6
Continuous
 62
     7
370
    15
100
AcDbLine
 10
-90.5937146076
 20
389.6059276674
 30
0.0
 11
-91.4229306709
 21
385.5489506664
 31
0.0
  0
LINE
  5
9DA
330
1F
100
AcDbEntity
  8
0
  6
Continuous
 62
     7
370
    15
100
AcDbLine
 10
-88.4280480007
 20
390.1031662609
 30
0.0
 11
-90.5937146076
 21
389.6059276674
 31
0.0
  0
LINE
  5
9DB
330
1F
100
AcDbEntity
  8
0
  6
Continuous
 62
     7
370
    15
100
AcDbLine
 10
-88.4280480007
 20
390.1031662609
 30
0.0
 11
-85.9122022339
 21
386.8142178355
 31
0.0
  0
LINE
  5
9DC
330
1F
100
AcDbEntity
  8
0
  6
Continuous
 62
     7
370
    15
100
AcDbLine
 10
-83.5449452222
 20
391.178018462
 30
0.0
 11
-84.4472714004
 21
387.1366734958
 31
0.0
  0
LINE
  5
9DD
330
1F
100
AcDbEntity
  8
0
  6
Continuous
 62
     7
370
    15
100
AcDbLine
 10
-81.3706543763
 20
391.6360767426
 30
0.0
 11
-83.5449452222
 21
391.178018462
 31
0.0
  0
LINE
  5
9DE
330
1F
100
AcDbEntity
  8
0
  6
Continuous
 62
     7
370
    15
100
AcDbLine
 10
-81.3706543763
 20
391.6360767426
 30
0.0
 11
-78.9145978316
 21
388.3022429261
 31
0.0
  0
LINE
  5
9DF
330
1F
100
AcDbEntity
  8
0
  6
Continuous
 62
     7
370
    15
100
AcDbLine
 10
-76.4689419499
 20
392.6225934878
 30
0.0
 11
-77.4440841036
 21
388.5981979497
 31
0.0
  0
LINE
  5
9E0
330
1F
100
AcDbEntity
  8
0
  6
Continuous
 62
     7
370
    15
100
AcDbLine
 10
-74.2867356379
 20
393.0413221384
 30
0.0
 11
-76.4689419499
 21
392.6225934878
 31
0.0
  0
LINE
  5
9E1
330
1F
100
AcDbEntity
  8
0
  6
Continuous
 62
     7
370
    15
100
AcDbLine
 10
-74.2867356379
 20
393.0413221384
 30
0.0
 11
-71.8912689377
 21
389.6636896901
 31
0.0
  0
LINE
  5
9E2
330
1F
100
AcDbEntity
  8
0
  6
Continuous
 62
     7
370
    15
100
AcDbLine
 10
-69.3680114182
 20
393.939181844
 30
0.0
 11
-70.4156516718
 21
389.9330476018
 31
0.0
  0
LINE
  5
9E3
330
1F
100
AcDbEntity
  8
0
  6
Continuous
 62
     7
370
    15
100
AcDbLine
 10
-67.1786009933
 20
394.3184443677
 30
0.0
 11
-69.3680114182
 21
393.939181844
 31
0.0
  0
LINE
  5
9E4
330
1F
100
AcDbEntity
  8
0
  6
Continuous
 62
     7
370
    15
100
AcDbLine
 10
-67.1786009933
 20
394.3184443677
 30
0.0
 11
-64.8445050092
 21
390.8981143246
 31
0.0
  0
LINE
  5
9E5
330
1F
100
AcDbEntity
  8
0
  6
Continuous
 62
     7
370
    15
100
AcDbLine
 10
-62.2444683806
 20
395.1273543505
 30
0.0
 11
-63.3642652254
 21
391.1407873194
 31
0.0
  0
LINE
  5
9E6
330
1F
100
AcDbEntity
  8
0
  6
Continuous
 62
     7
370
    15
100
AcDbLine
 10
-60.0485675442
 20
395.4670271159
 30
0.0
 11
-62.2444683806
 21
395.1273543505
 31
0.0
  0
LINE
  5
9E7
330
1F
100
AcDbEntity
  8
0
  6
Continuous
 62
     7
370
    15
100
AcDbLine
 10
-60.0485675442
 20
395.4670271159
 30
0.0
 11
-57.7766031421
 21
392.0051144331
 31
0.0
  0
LINE
  5
9E8
330
1F
100
AcDbEntity
  8
0
  6
Continuous
 62
     7
370
    15
100
AcDbLine
 10
-55.1006349614
 20
396.1867236883
 30
0.0
 11
-56.2922233673
 21
392.2210234049
 31
0.0
  0
LINE
  5
9E9
330
1F
100
AcDbEntity
  8
0
  6
Continuous
 62
     7
370
    15
100
AcDbLine
 10
-52.8989595308
 20
396.4866959692
 30
0.0
 11
-55.1006349614
 21
396.1867236883
 31
0.0
  0
LINE
  5
9EA
330
1F
100
AcDbEntity
  8
0
  6
Continuous
 62
     7
370
    15
100
AcDbLine
 10
-52.8989595308
 20
396.4866959692
 30
0.0
 11
-50.6898673233
 21
392.9843291572
 31
0.0
  0
LINE
  5
9EB
330
1F
100
AcDbEntity
  8
0
  6
Continuous
 62
     7
370
    15
100
AcDbLine
 10
-47.9388398994
 20
397.1169445253
 30
0.0
 11
-49.2018314338
 21
393.173403724
 31
0.0
  0
LINE
  5
9EC
330
1F
100
AcDbEntity
  8
0
  6
Continuous
 62
     7
370
    15
100
AcDbLine
 10
-45.7321075744
 20
397.377118537
 30
0.0
 11
-47.9388398994
 21
397.1169445253
 31
0.0
  0
LINE
  5
9ED
330
1F
100
AcDbEntity
  8
0
  6
Continuous
 62
     7
370
    15
100
AcDbLine
 10
-45.7321075744
 20
397.377118537
 30
0.0
 11
-43.5866076787
 21
393.8354392934
 31
0.0
  0
LINE
  5
9EE
330
1F
100
AcDbEntity
  8
0
  6
Continuous
 62
     7
370
    15
100
AcDbLine
 10
-40.7614177886
 20
397.9177136292
 30
0.0
 11
-42.0954007429
 21
393.9976178211
 31
0.0
  0
LINE
  5
9EF
330
1F
100
AcDbEntity
  8
0
  6
Continuous
 62
     7
370
    15
100
AcDbLine
 10
-38.5503479172
 20
398.1380045606
 30
0.0
 11
-40.7614177886
 21
397.9177136292
 31
0.0
  0
LINE
  5
9F0
330
1F
100
AcDbEntity
  8
0
  6
Continuous
 62
     7
370
    15
100
AcDbLine
 10
-38.5503479172
 20
398.1380045606
 30
0.0
 11
-36.4691397209
 21
394.5581673979
 31
0.0
  0
LINE
  5
9F1
330
1F
100
AcDbEntity
  8
0
  6
Continuous
 62
     7
370
    15
100
AcDbLine
 10
-33.5707083168
 20
398.5887699661
 30
0.0
 11
-34.9752478408
 21
394.6933970196
 31
0.0
  0
LINE
  5
9F2
330
1F
100
AcDbEntity
  8
0
  6
Continuous
 62
     7
370
    15
100
AcDbLine
 10
-31.3560216611
 20
398.769106007
 30
0.0
 11
-33.5707083168
 21
398.5887699661
 31
0.0
  0
LINE
  5
9F3
330
1F
100
AcDbEntity
  8
0
  6
Continuous
 62
     7
370
    15
100
AcDbLine
 10
-31.3560216611
 20
398.769106007
 30
0.0
 11
-29.3397835942
 21
395.1522778766
 31
0.0
  0
LINE
  5
9F4
330
1F
100
AcDbEntity
  8
0
  6
Continuous
 62
     7
370
    15
100
AcDbLine
 10
-26.3690555035
 20
399.129894786
 30
0.0
 11
-27.8436937469
 21
395.2605145103
 31
0.0
  0
LINE
  5
9F5
330
1F
100
AcDbEntity
  8
0
  6
Continuous
 62
     7
370
    15
100
AcDbLine
 10
-24.1514740044
 20
399.2702171505
 30
0.0
 11
-26.3690555035
 21
399.129894786
 31
0.0
  0
LINE
  5
9F6
330
1F
100
AcDbEntity
  8
0
  6
Continuous
 62
     7
370
    15
100
AcDbLine
 10
-24.1514740044
 20
399.2702171505
 30
0.0
 11
-22.200863318
 21
395.6175770619
 31
0.0
  0
LINE
  5
9F7
330
1F
100
AcDbEntity
  8
0
  6
Continuous
 62
     7
370
    15
100
AcDbLine
 10
-19.1588069352
 20
399.5409116934
 30
0.0
 11
-20.7030631972
 21
395.6987854248
 31
0.0
  0
LINE
  5
9F8
330
1F
100
AcDbEntity
  8
0
  6
Continuous
 62
     7
370
    15
100
AcDbLine
 10
-16.9390534776
 20
399.6411746396
 30
0.0
 11
-19.1588069352
 21
399.5409116934
 31
0.0
  0
LINE
  5
9F9
330
1F
100
AcDbEntity
  8
0
  6
Continuous
 62
     7
370
    15
100
AcDbLine
 10
-16.9390534776
 20
399.6411746396
 30
0.0
 11
-15.0547060294
 21
395.9539132762
 31
0.0
  0
LINE
  5
9FA
330
1F
100
AcDbEntity
  8
0
  6
Continuous
 62
     7
370
    15
100
AcDbLine
 10
-11.9423130006
 20
399.8216867057
 30
0.0
 11
-13.5556838863
 21
396.0080668961
 31
0.0
  0
LINE
  5
9FB
330
1F
100
AcDbEntity
  8
0
  6
Continuous
 62
     7
370
    15
100
AcDbLine
 10
-9.7211111772
 20
399.8818575498
 30
0.0
 11
-11.9423130006
 21
399.8216867057
 31
0.0
  0
LINE
  5
9FC
330
1F
100
AcDbEntity
  8
0
  6
Continuous
 62
     7
370
    15
100
AcDbLine
 10
-9.7211111772
 20
399.8818575498
 30
0.0
 11
-7.9036412247
 21
396.1611768811
 31
0.0
  0
LINE
  5
9FD
330
1F
100
AcDbEntity
  8
0
  6
Continuous
 62
     7
370
    15
100
AcDbLine
 10
-4.7219261244
 20
399.9721282961
 30
0.0
 11
-6.4038857089
 21
396.1882581049
 31
0.0
  0
LINE
  5
9FE
330
1F
100
AcDbEntity
  8
0
  6
Continuous
 62
     7
370
    15
100
AcDbLine
 10
-2.5
 20
399.9921874237
 30
0.0
 11
-4.7219261244
 21
399.9721282961
 31
0.0
  0
LINE
  5
9FF
330
1F
100
AcDbEntity
  8
0
  6
Continuous
 62
     7
370
    15
100
AcDbLine
 10
-2.5
 20
399.9921874237
 30
0.0
 11
-0.75
 21
396.2393003128
 31
0.0
  0
LINE
  5
A00
330
1F
100
AcDbEntity
  8
0
  6
Continuous
 62
     7
370
    15
100
AcDbLine
 10
2.5
 20
399.9921874237
 30
0.0
 11
0.75
 21
396.2393003128
 31
0.0
  0
LINE
  5
A01
330
1F
100
AcDbEntity
  8
0
  6
Continuous
 62
     7
370
    15
100
AcDbLine
 10
4.7219261244
 20
399.9721282961
 30
0.0
 11
2.5
 21
399.9921874237
 31
0.0
  0
LINE
  5
A02
330
1F
100
AcDbEntity
  8
0
  6
Continuous
 62
     7
370
    15
100
AcDbLine
 10
4.7219261244
 20
399.9721282961
 30
0.0
 11
6.4038857089
 21
396.1882581049
 31
0.0
  0
LINE
  5
A03
330
1F
100
AcDbEntity
  8
0
  6
Continuous
 62
     7
370
    15
100
AcDbLine
 10
9.7211111772
 20
399.8818575498
 30
0.0
 11
7.9036412247
 21
396.1611768811
 31
0.0
  0
LINE
  5
A04
330
1F
100
AcDbEntity
  8
0
  6
Continuous
 62
     7
370
    15
100
AcDbLine
 10
11.9423130006
 20
399.8216867057
 30
0.0
 11
9.7211111772
 21
399.8818575498
 31
0.0
  0
LINE
  5
A05
330
1F
100
AcDbEntity
  8
0
  6
Continuous
 62
     7
370
    15
100
AcDbLine
 10
11.9423130006
 20
399.8216867057
 30
0.0
 11
13.5556838863
 21
396.0080668961
 31
0.0
  0
LINE
  5
A06
330
1F
100
AcDbEntity
  8
0
  6
Continuous
 62
     7
370
    15
100
AcDbLine
 10
16.9390534776
 20
399.6411746396
 30
0.0
 11
15.0547060294
 21
395.9539132762
 31
0.0
  0
LINE
  5
A07
330
1F
100
AcDbEntity
  8
0
  6
Continuous
 62
     7
370
    15
100
AcDbLine
 10
-344.0250608479
 20
-204.0753721265
 30
0.0
 11
-339.9071533455
 21
-203.6400567593
 31
0.0
  0
ARC
  5
A08
330
1F
100
AcDbEntity
  8
0
  6
Continuous
 62
     7
370
    15
100
AcDbCircle
 10
21.4877727797
 20
396.3186490155
 30
0.0
 40
0.999999999999965
100
AcDbArc
 50
218.3061738334
 51
315.4869296149
  0
ARC
  5
A09
330
1F
100
AcDbEntity
  8
0
  6
Continuous
 62
     7
370
    15
100
AcDbCircle
 10
28.6394665398
 20
395.8661098059
 30
0.0
 40
1.000000000000017
100
AcDbArc
 50
217.2716910748
 51
314.4524468562
  0
ARC
  5
A0A
330
1F
100
AcDbEntity
  8
0
  6
Continuous
 62
     7
370
    15
100
AcDbCircle
 10
35.781824439
 20
395.2845266088
 30
0.0
 40
1.000000000000016
100
AcDbArc
 50
216.2372083162
 51
313.4179640976
  0
ARC
  5
A0B
330
1F
100
AcDbEntity
  8
0
  6
Continuous
 62
     7
370
    15
100
AcDbCircle
 10
42.9125182195
 20
394.5740890081
 30
0.0
 40
1.000000000000009
100
AcDbArc
 50
215.2027255575
 51
312.383481339
  0
ARC
  5
A0C
330
1F
100
AcDbEntity
  8
0
  6
Continuous
 62
     7
370
    15
100
AcDbCircle
 10
50.0292234257
 20
393.7350285915
 30
0.0
 40
1.000000000000012
100
AcDbArc
 50
214.1682427989
 51
311.3489985804
  0
ARC
  5
A0D
330
1F
100
AcDbEntity
  8
0
  6
Continuous
 62
     7
370
    15
100
AcDbCircle
 10
57.1296201622
 20
392.7676188749
 30
0.0
 40
0.9999999999999928
100
AcDbArc
 50
213.1337600403
 51
310.3145158218
  0
ARC
  5
A0E
330
1F
100
AcDbEntity
  8
0
  6
Continuous
 62
     7
370
    15
100
AcDbCircle
 10
64.2113938496
 20
391.6721752134
 30
0.0
 40
1.000000000000013
100
AcDbArc
 50
212.0992772817
 51
309.2800330631
  0
ARC
  5
A0F
330
1F
100
AcDbEntity
  8
0
  6
Continuous
 62
     7
370
    15
100
AcDbCircle
 10
71.2722359794
 20
390.4490546986
 30
0.0
 40
0.9999999999999644
100
AcDbArc
 50
211.0647945231
 51
308.2455503045
  0
ARC
  5
A10
330
1F
100
AcDbEntity
  8
0
  6
Continuous
 62
     7
370
    15
100
AcDbCircle
 10
78.3098448662
 20
389.0986560418
 30
0.0
 40
1.000000000000076
100
AcDbArc
 50
210.0303117644
 51
307.2110675459
  0
ARC
  5
A11
330
1F
100
AcDbEntity
  8
0
  6
Continuous
 62
     7
370
    15
100
AcDbCircle
 10
85.3219263982
 20
387.6214194446
 30
0.0
 40
0.9999999999999796
100
AcDbArc
 50
208.9958290058
 51
306.1765847873
  0
ARC
  5
A12
330
1F
100
AcDbEntity
  8
0
  6
Continuous
 62
     7
370
    15
100
AcDbCircle
 10
92.3061947849
 20
386.0178264548
 30
0.0
 40
0.9999999999999746
100
AcDbArc
 50
207.9613462472
 51
305.1421020287
  0
ARC
  5
A13
330
1F
100
AcDbEntity
  8
0
  6
Continuous
 62
     7
370
    15
100
AcDbCircle
 10
99.2603733025
 20
384.2883998098
 30
0.0
 40
1.000000000000029
100
AcDbArc
 50
206.9268634886
 51
304.10761927
  0
ARC
  5
A14
330
1F
100
AcDbEntity
  8
0
  6
Continuous
 62
     7
370
    15
100
AcDbCircle
 10
106.1821950358
 20
382.4337032662
 30
0.0
 40
1.000000000000093
100
AcDbArc
 50
205.89238073
 51
303.0731365114
  0
ARC
  5
A15
330
1F
100
AcDbEntity
  8
0
  6
Continuous
 62
     7
370
    15
100
AcDbCircle
 10
113.069403617
 20
380.4543414159
 30
0.0
 40
1.000000000000129
100
AcDbArc
 50
204.8578979713
 51
302.0386537528
  0
ARC
  5
A16
330
1F
100
AcDbEntity
  8
0
  6
Continuous
 62
     7
370
    15
100
AcDbCircle
 10
119.9197539617
 20
378.3509594891
 30
0.0
 40
0.9999999999999448
100
AcDbArc
 50
203.8234152127
 51
301.0041709942
  0
ARC
  5
A17
330
1F
100
AcDbEntity
  8
0
  6
Continuous
 62
     7
370
    15
100
AcDbCircle
 10
126.7310130004
 20
376.1242431437
 30
0.0
 40
1.000000000000037
100
AcDbArc
 50
202.7889324541
 51
299.9696882356
  0
ARC
  5
A18
330
1F
100
AcDbEntity
  8
0
  6
Continuous
 62
     7
370
    15
100
AcDbCircle
 10
133.5009604066
 20
373.7749182423
 30
0.0
 40
1.000000000000043
100
AcDbArc
 50
201.7544496955
 51
298.9352054769
  0
ARC
  5
A19
330
1F
100
AcDbEntity
  8
0
  6
Continuous
 62
     7
370
    15
100
AcDbCircle
 10
140.2273893205
 20
371.3037506152
 30
0.0
 40
1.000000000000013
100
AcDbArc
 50
200.7199669369
 51
297.9007227183
  0
ARC
  5
A1A
330
1F
100
AcDbEntity
  8
0
  6
Continuous
 62
     7
370
    15
100
AcDbCircle
 10
146.9081070684
 20
368.7115458107
 30
0.0
 40
0.9999999999998885
100
AcDbArc
 50
199.6854841782
 51
296.8662399597
  0
ARC
  5
A1B
330
1F
100
AcDbEntity
  8
0
  6
Continuous
 62
     7
370
    15
100
AcDbCircle
 10
153.5409358775
 20
365.9991488329
 30
0.0
 40
0.9999999999998985
100
AcDbArc
 50
198.6510014196
 51
295.8317572011
  0
ARC
  5
A1C
330
1F
100
AcDbEntity
  8
0
  6
Continuous
 62
     7
370
    15
100
AcDbCircle
 10
160.1237135856
 20
363.1674438659
 30
0.0
 40
1.00000000000003
100
AcDbArc
 50
197.616518661
 51
294.7972744425
  0
ARC
  5
A1D
330
1F
100
AcDbEntity
  8
0
  6
Continuous
 62
     7
370
    15
100
AcDbCircle
 10
166.6542943465
 20
360.2173539856
 30
0.0
 40
0.9999999999998895
100
AcDbArc
 50
196.5820359024
 51
293.7627916838
  0
ARC
  5
A1E
330
1F
100
AcDbEntity
  8
0
  6
Continuous
 62
     7
370
    15
100
AcDbCircle
 10
173.1305493286
 20
357.1498408591
 30
0.0
 40
1.000000000000015
100
AcDbArc
 50
195.5475531438
 51
292.7283089252
  0
ARC
  5
A1F
330
1F
100
AcDbEntity
  8
0
  6
Continuous
 62
     7
370
    15
100
AcDbCircle
 10
179.5503674098
 20
353.9659044308
 30
0.0
 40
1.000000000000121
100
AcDbArc
 50
194.5130703851
 51
291.6938261666
  0
ARC
  5
A20
330
1F
100
AcDbEntity
  8
0
  6
Continuous
 62
     7
370
    15
100
AcDbCircle
 10
185.911655865
 20
350.6665825967
 30
0.0
 40
1.000000000000035
100
AcDbArc
 50
193.4785876265
 51
290.659343408
  0
ARC
  5
A21
330
1F
100
AcDbEntity
  8
0
  6
Continuous
 62
     7
370
    15
100
AcDbCircle
 10
192.2123410486
 20
347.252950866
 30
0.0
 40
1.000000000000138
100
AcDbArc
 50
192.4441048679
 51
289.6248606493
  0
ARC
  5
A22
330
1F
100
AcDbEntity
  8
0
  6
Continuous
 62
     7
370
    15
100
AcDbCircle
 10
198.4503690703
 20
343.7261220105
 30
0.0
 40
1.00000000000004
100
AcDbArc
 50
191.4096221093
 51
288.5903778907
  0
ARC
  5
A23
330
1F
100
AcDbEntity
  8
0
  6
Continuous
 62
     7
370
    15
100
AcDbCircle
 10
204.6237064648
 20
340.087245702
 30
0.0
 40
1.000000000000051
100
AcDbArc
 50
190.3751393506
 51
287.5558951321
  0
ARC
  5
A24
330
1F
100
AcDbEntity
  8
0
  6
Continuous
 62
     7
370
    15
100
AcDbCircle
 10
210.7303408545
 20
336.3375081371
 30
0.0
 40
1.000000000000052
100
AcDbArc
 50
189.340656592
 51
286.5214123735
  0
ARC
  5
A25
330
1F
100
AcDbEntity
  8
0
  6
Continuous
 62
     7
370
    15
100
AcDbCircle
 10
216.7682816057
 20
332.4781316512
 30
0.0
 40
1.000000000000029
100
AcDbArc
 50
188.3061738334
 51
285.4869296149
  0
ARC
  5
A26
330
1F
100
AcDbEntity
  8
0
  6
Continuous
 62
     7
370
    15
100
AcDbCircle
 10
222.7355604773
 20
328.5103743193
 30
0.0
 40
1.000000000000027
100
AcDbArc
 50
187.2716910748
 51
284.4524468562
  0
ARC
  5
A27
330
1F
100
AcDbEntity
  8
0
  6
Continuous
 62
     7
370
    15
100
AcDbCircle
 10
228.6302322624
 20
324.4355295466
 30
0.0
 40
1.000000000000019
100
AcDbArc
 50
186.2372083162
 51
283.4179640976
  0
ARC
  5
A28
330
1F
100
AcDbEntity
  8
0
  6
Continuous
 62
     7
370
    15
100
AcDbCircle
 10
234.4503754225
 20
320.2549256464
 30
0.0
 40
0.9999999999999021
100
AcDbArc
 50
185.2027255575
 51
282.383481339
  0
ARC
  5
A29
330
1F
100
AcDbEntity
  8
0
  6
Continuous
 62
     7
370
    15
100
AcDbCircle
 10
240.1940927141
 20
315.9699254072
 30
0.0
 40
1.000000000000054
100
AcDbArc
 50
184.1682427989
 51
281.3489985804
  0
ARC
  5
A2A
330
1F
100
AcDbEntity
  8
0
  6
Continuous
 62
     7
370
    15
100
AcDbCircle
 10
245.8595118065
 20
311.5819256485
 30
0.0
 40
0.9999999999999756
100
AcDbArc
 50
183.1337600403
 51
280.3145158218
  0
ARC
  5
A2B
330
1F
100
AcDbEntity
  8
0
  6
Continuous
 62
     7
370
    15
100
AcDbCircle
 10
251.4447858929
 20
307.0923567655
 30
0.0
 40
0.9999999999999301
100
AcDbArc
 50
182.0992772817
 51
279.2800330631
  0
ARC
  5
A2C
330
1F
100
AcDbEntity
  8
0
  6
Continuous
 62
     7
370
    15
100
AcDbCircle
 10
256.948094292
 20
302.5026822629
 30
0.0
 40
1.000000000000069
100
AcDbArc
 50
181.0647945231
 51
278.2455503045
  0
ARC
  5
A2D
330
1F
100
AcDbEntity
  8
0
  6
Continuous
 62
     7
370
    15
100
AcDbCircle
 10
262.3676430415
 20
297.8143982775
 30
0.0
 40
1.000000000000111
100
AcDbArc
 50
180.0303117644
 51
277.2110675459
  0
ARC
  5
A2E
330
1F
100
AcDbEntity
  8
0
  6
Continuous
 62
     7
370
    15
100
AcDbCircle
 10
267.7016654829
 20
293.0290330909
 30
0.0
 40
1.000000000000012
100
AcDbArc
 50
178.9958290058
 51
276.1765847873
  0
ARC
  5
A2F
330
1F
100
AcDbEntity
  8
0
  6
Continuous
 62
     7
370
    15
100
AcDbCircle
 10
272.9484228378
 20
288.148146631
 30
0.0
 40
1.000000000000139
100
AcDbArc
 50
177.9613462472
 51
275.1421020287
  0
ARC
  5
A30
330
1F
100
AcDbEntity
  8
0
  6
Continuous
 62
     7
370
    15
100
AcDbCircle
 10
278.106204774
 20
283.1733299637
 30
0.0
 40
0.9999999999999925
100
AcDbArc
 50
176.9268634886
 51
274.10761927
  0
ARC
  5
A31
330
1F
100
AcDbEntity
  8
0
  6
Continuous
 62
     7
370
    15
100
AcDbCircle
 10
283.1733299637
 20
278.106204774
 30
0.0
 40
0.9999999999998832
100
AcDbArc
 50
175.89238073
 51
273.0731365114
  0
ARC
  5
A32
330
1F
100
AcDbEntity
  8
0
  6
Continuous
 62
     7
370
    15
100
AcDbCircle
 10
288.148146631
 20
272.9484228378
 30
0.0
 40
1.00000000000005
100
AcDbArc
 50
174.8578979713
 51
272.0386537528
  0
ARC
  5
A33
330
1F
100
AcDbEntity
  8
0
  6
Continuous
 62
     7
370
    15
100
AcDbCircle
 10
293.0290330909
 20
267.7016654829
 30
0.0
 40
1.000000000000012
100
AcDbArc
 50
173.8234152127
 51
271.0041709942
  0
ARC
  5
A34
330
1F
100
AcDbEntity
  8
0
  6
Continuous
 62
     7
370
    15
100
AcDbCircle
 10
297.8143982775
 20
262.3676430415
 30
0.0
 40
0.9999999999999162
100
AcDbArc
 50
172.7889324541
 51
269.9696882356
  0
ARC
  5
A35
330
1F
100
AcDbEntity
  8
0
  6
Continuous
 62
     7
370
    15
100
AcDbCircle
 10
302.5026822629
 20
256.948094292
 30
0.0
 40
0.9999999999998831
100
AcDbArc
 50
171.7544496955
 51
268.9352054769
  0
ARC
  5
A36
330
1F
100
AcDbEntity
  8
0
  6
Continuous
 62
     7
370
    15
100
AcDbCircle
 10
307.0923567655
 20
251.4447858929
 30
0.0
 40
1.000000000000065
100
AcDbArc
 50
170.7199669369
 51
267.9007227183
  0
ARC
  5
A37
330
1F
100
AcDbEntity
  8
0
  6
Continuous
 62
     7
370
    15
100
AcDbCircle
 10
311.5819256485
 20
245.8595118065
 30
0.0
 40
0.9999999999999787
100
AcDbArc
 50
169.6854841782
 51
266.8662399597
  0
ARC
  5
A38
330
1F
100
AcDbEntity
  8
0
  6
Continuous
 62
     7
370
    15
100
AcDbCircle
 10
315.9699254072
 20
240.1940927141
 30
0.0
 40
0.9999999999999561
100
AcDbArc
 50
168.6510014196
 51
265.8317572011
  0
ARC
  5
A39
330
1F
100
AcDbEntity
  8
0
  6
Continuous
 62
     7
370
    15
100
AcDbCircle
 10
320.2549256464
 20
234.4503754225
 30
0.0
 40
0.9999999999999587
100
AcDbArc
 50
167.616518661
 51
264.7972744425
  0
ARC
  5
A3A
330
1F
100
AcDbEntity
  8
0
  6
Continuous
 62
     7
370
    15
100
AcDbCircle
 10
324.4355295466
 20
228.6302322624
 30
0.0
 40
1.000000000000081
100
AcDbArc
 50
166.5820359024
 51
263.7627916838
  0
ARC
  5
A3B
330
1F
100
AcDbEntity
  8
0
  6
Continuous
 62
     7
370
    15
100
AcDbCircle
 10
328.5103743193
 20
222.7355604773
 30
0.0
 40
1.000000000000005
100
AcDbArc
 50
165.5475531438
 51
262.7283089252
  0
ARC
  5
A3C
330
1F
100
AcDbEntity
  8
0
  6
Continuous
 62
     7
370
    15
100
AcDbCircle
 10
332.4781316512
 20
216.7682816057
 30
0.0
 40
0.9999999999999446
100
AcDbArc
 50
164.5130703851
 51
261.6938261666
  0
ARC
  5
A3D
330
1F
100
AcDbEntity
  8
0
  6
Continuous
 62
     7
370
    15
100
AcDbCircle
 10
336.3375081371
 20
210.7303408545
 30
0.0
 40
0.9999999999999756
100
AcDbArc
 50
163.4785876265
 51
260.659343408
  0
ARC
  5
A3E
330
1F
100
AcDbEntity
  8
0
  6
Continuous
 62
     7
370
    15
100
AcDbCircle
 10
340.087245702
 20
204.6237064648
 30
0.0
 40
0.9999999999999569
100
AcDbArc
 50
162.4441048679
 51
259.6248606494
  0
ARC
  5
A3F
330
1F
100
AcDbEntity
  8
0
  6
Continuous
 62
     7
370
    15
100
AcDbCircle
 10
343.7261220105
 20
198.4503690703
 30
0.0
 40
0.9999999999998531
100
AcDbArc
 50
161.4096221093
 51
258.5903778907
  0
ARC
  5
A40
330
1F
100
AcDbEntity
  8
0
  6
Continuous
 62
     7
370
    15
100
AcDbCircle
 10
347.252950866
 20
192.2123410486
 30
0.0
 40
1.000000000000007
100
AcDbArc
 50
160.3751393506
 51
257.5558951321
  0
ARC
  5
A41
330
1F
100
AcDbEntity
  8
0
  6
Continuous
 62
     7
370
    15
100
AcDbCircle
 10
350.6665825967
 20
185.911655865
 30
0.0
 40
1.000000000000052
100
AcDbArc
 50
159.340656592
 51
256.5214123735
  0
ARC
  5
A42
330
1F
100
AcDbEntity
  8
0
  6
Continuous
 62
     7
370
    15
100
AcDbCircle
 10
353.9659044308
 20
179.5503674098
 30
0.0
 40
0.999999999999912
100
AcDbArc
 50
158.3061738334
 51
255.4869296149
  0
ARC
  5
A43
330
1F
100
AcDbEntity
  8
0
  6
Continuous
 62
     7
370
    15
100
AcDbCircle
 10
357.1498408591
 20
173.1305493286
 30
0.0
 40
0.9999999999999568
100
AcDbArc
 50
157.2716910748
 51
254.4524468563
  0
ARC
  5
A44
330
1F
100
AcDbEntity
  8
0
  6
Continuous
 62
     7
370
    15
100
AcDbCircle
 10
360.2173539856
 20
166.6542943465
 30
0.0
 40
1.000000000000023
100
AcDbArc
 50
156.2372083162
 51
253.4179640976
  0
ARC
  5
A45
330
1F
100
AcDbEntity
  8
0
  6
Continuous
 62
     7
370
    15
100
AcDbCircle
 10
363.1674438659
 20
160.1237135856
 30
0.0
 40
0.9999999999999922
100
AcDbArc
 50
155.2027255575
 51
252.383481339
  0
ARC
  5
A46
330
1F
100
AcDbEntity
  8
0
  6
Continuous
 62
     7
370
    15
100
AcDbCircle
 10
365.9991488329
 20
153.5409358775
 30
0.0
 40
1.000000000000065
100
AcDbArc
 50
154.1682427989
 51
251.3489985804
  0
ARC
  5
A47
330
1F
100
AcDbEntity
  8
0
  6
Continuous
 62
     7
370
    15
100
AcDbCircle
 10
368.7115458107
 20
146.9081070684
 30
0.0
 40
1.000000000000002
100
AcDbArc
 50
153.1337600403
 51
250.3145158218
  0
ARC
  5
A48
330
1F
100
AcDbEntity
  8
0
  6
Continuous
 62
     7
370
    15
100
AcDbCircle
 10
371.3037506152
 20
140.2273893205
 30
0.0
 40
1.000000000000037
100
AcDbArc
 50
152.0992772817
 51
249.2800330631
  0
ARC
  5
A49
330
1F
100
AcDbEntity
  8
0
  6
Continuous
 62
     7
370
    15
100
AcDbCircle
 10
373.7749182423
 20
133.5009604066
 30
0.0
 40
1.000000000000005
100
AcDbArc
 50
151.0647945231
 51
248.2455503045
  0
ARC
  5
A4A
330
1F
100
AcDbEntity
  8
0
  6
Continuous
 62
     7
370
    15
100
AcDbCircle
 10
376.1242431437
 20
126.7310130004
 30
0.0
 40
1.000000000000058
100
AcDbArc
 50
150.0303117644
 51
247.2110675459
  0
ARC
  5
A4B
330
1F
100
AcDbEntity
  8
0
  6
Continuous
 62
     7
370
    15
100
AcDbCircle
 10
378.3509594891
 20
119.9197539617
 30
0.0
 40
1.000000000000035
100
AcDbArc
 50
148.9958290058
 51
246.1765847873
  0
ARC
  5
A4C
330
1F
100
AcDbEntity
  8
0
  6
Continuous
 62
     7
370
    15
100
AcDbCircle
 10
380.4543414159
 20
113.069403617
 30
0.0
 40
0.9999999999999107
100
AcDbArc
 50
147.9613462472
 51
245.1421020287
  0
ARC
  5
A4D
330
1F
100
AcDbEntity
  8
0
  6
Continuous
 62
     7
370
    15
100
AcDbCircle
 10
382.4337032662
 20
106.1821950358
 30
0.0
 40
1.000000000000015
100
AcDbArc
 50
146.9268634886
 51
244.10761927
  0
ARC
  5
A4E
330
1F
100
AcDbEntity
  8
0
  6
Continuous
 62
     7
370
    15
100
AcDbCircle
 10
384.2883998098
 20
99.2603733025
 30
0.0
 40
0.9999999999999322
100
AcDbArc
 50
145.89238073
 51
243.0731365114
  0
ARC
  5
A4F
330
1F
100
AcDbEntity
  8
0
  6
Continuous
 62
     7
370
    15
100
AcDbCircle
 10
386.0178264548
 20
92.3061947849
 30
0.0
 40
1.000000000000014
100
AcDbArc
 50
144.8578979713
 51
242.0386537528
  0
ARC
  5
A50
330
1F
100
AcDbEntity
  8
0
  6
Continuous
 62
     7
370
    15
100
AcDbCircle
 10
387.6214194446
 20
85.3219263982
 30
0.0
 40
0.999999999999939
100
AcDbArc
 50
143.8234152127
 51
241.0041709942
  0
ARC
  5
A51
330
1F
100
AcDbEntity
  8
0
  6
Continuous
 62
     7
370
    15
100
AcDbCircle
 10
389.0986560418
 20
78.3098448662
 30
0.0
 40
1.000000000000005
100
AcDbArc
 50
142.7889324541
 51
239.9696882356
  0
ARC
  5
A52
330
1F
100
AcDbEntity
  8
0
  6
Continuous
 62
     7
370
    15
100
AcDbCircle
 10
390.4490546986
 20
71.2722359794
 30
0.0
 40
1.000000000000078
100
AcDbArc
 50
141.7544496955
 51
238.9352054769
  0
ARC
  5
A53
330
1F
100
AcDbEntity
  8
0
  6
Continuous
 62
     7
370
    15
100
AcDbCircle
 10
391.6721752134
 20
64.2113938496
 30
0.0
 40
0.9999999999998992
100
AcDbArc
 50
140.7199669369
 51
237.9007227183
  0
ARC
  5
A54
330
1F
100
AcDbEntity
  8
0
  6
Continuous
 62
     7
370
    15
100
AcDbCircle
 10
392.7676188749
 20
57.1296201622
 30
0.0
 40
0.9999999999999988
100
AcDbArc
 50
139.6854841782
 51
236.8662399597
  0
ARC
  5
A55
330
1F
100
AcDbEntity
  8
0
  6
Continuous
 62
     7
370
    15
100
AcDbCircle
 10
393.7350285915
 20
50.0292234257
 30
0.0
 40
0.9999999999999696
100
AcDbArc
 50
138.6510014196
 51
235.8317572011
  0
ARC
  5
A56
330
1F
100
AcDbEntity
  8
0
  6
Continuous
 62
     7
370
    15
100
AcDbCircle
 10
394.5740890081
 20
42.9125182195
 30
0.0
 40
1.000000000000009
100
AcDbArc
 50
137.616518661
 51
234.7972744425
  0
ARC
  5
A57
330
1F
100
AcDbEntity
  8
0
  6
Continuous
 62
     7
370
    15
100
AcDbCircle
 10
395.2845266088
 20
35.781824439
 30
0.0
 40
0.9999999999999489
100
AcDbArc
 50
136.5820359024
 51
233.7627916838
  0
ARC
  5
A58
330
1F
100
AcDbEntity
  8
0
  6
Continuous
 62
     7
370
    15
100
AcDbCircle
 10
395.8661098059
 20
28.6394665398
 30
0.0
 40
0.9999999999998569
100
AcDbArc
 50
135.5475531437
 51
232.7283089252
  0
ARC
  5
A59
330
1F
100
AcDbEntity
  8
0
  6
Continuous
 62
     7
370
    15
100
AcDbCircle
 10
396.3186490155
 20
21.4877727797
 30
0.0
 40
0.9999999999998296
100
AcDbArc
 50
134.5130703851
 51
231.6938261666
  0
ARC
  5
A5A
330
1F
100
AcDbEntity
  8
0
  6
Continuous
 62
     7
370
    15
100
AcDbCircle
 10
396.6419967195
 20
14.3290744596
 30
0.0
 40
0.9999999999999418
100
AcDbArc
 50
133.4785876265
 51
230.659343408
  0
ARC
  5
A5B
330
1F
100
AcDbEntity
  8
0
  6
Continuous
 62
     7
370
    15
100
AcDbCircle
 10
396.8360475134
 20
7.165705164
 30
0.0
 40
0.9999999999999555
100
AcDbArc
 50
132.4441048679
 51
229.6248606494
  0
ARC
  5
A5C
330
1F
100
AcDbEntity
  8
0
  6
Continuous
 62
     7
370
    15
100
AcDbCircle
 10
396.9007381406
 20
0.0
 30
0.0
 40
0.9999999999999903
100
AcDbArc
 50
131.4096221093
 51
228.5903778907
  0
ARC
  5
A5D
330
1F
100
AcDbEntity
  8
0
  6
Continuous
 62
     7
370
    15
100
AcDbCircle
 10
396.8360475134
 20
-7.165705164
 30
0.0
 40
0.9999999999999828
100
AcDbArc
 50
130.3751393506
 51
227.5558951321
  0
ARC
  5
A5E
330
1F
100
AcDbEntity
  8
0
  6
Continuous
 62
     7
370
    15
100
AcDbCircle
 10
396.6419967195
 20
-14.3290744596
 30
0.0
 40
1.000000000000093
100
AcDbArc
 50
129.340656592
 51
226.5214123735
  0
ARC
  5
A5F
330
1F
100
AcDbEntity
  8
0
  6
Continuous
 62
     7
370
    15
100
AcDbCircle
 10
396.3186490155
 20
-21.4877727797
 30
0.0
 40
0.9999999999999353
100
AcDbArc
 50
128.3061738334
 51
225.4869296149
  0
ARC
  5
A60
330
1F
100
AcDbEntity
  8
0
  6
Continuous
 62
     7
370
    15
100
AcDbCircle
 10
395.8661098059
 20
-28.6394665398
 30
0.0
 40
0.9999999999999786
100
AcDbArc
 50
127.2716910748
 51
224.4524468562
  0
ARC
  5
A61
330
1F
100
AcDbEntity
  8
0
  6
Continuous
 62
     7
370
    15
100
AcDbCircle
 10
395.2845266088
 20
-35.781824439
 30
0.0
 40
0.9999999999999489
100
AcDbArc
 50
126.2372083162
 51
223.4179640976
  0
ARC
  5
A62
330
1F
100
AcDbEntity
  8
0
  6
Continuous
 62
     7
370
    15
100
AcDbCircle
 10
394.5740890081
 20
-42.9125182195
 30
0.0
 40
1.000000000000015
100
AcDbArc
 50
125.2027255575
 51
222.383481339
  0
ARC
  5
A63
330
1F
100
AcDbEntity
  8
0
  6
Continuous
 62
     7
370
    15
100
AcDbCircle
 10
393.7350285915
 20
-50.0292234257
 30
0.0
 40
1.00000000000005
100
AcDbArc
 50
124.1682427989
 51
221.3489985804
  0
ARC
  5
A64
330
1F
100
AcDbEntity
  8
0
  6
Continuous
 62
     7
370
    15
100
AcDbCircle
 10
392.7676188749
 20
-57.1296201622
 30
0.0
 40
0.9999999999999953
100
AcDbArc
 50
123.1337600403
 51
220.3145158218
  0
ARC
  5
A65
330
1F
100
AcDbEntity
  8
0
  6
Continuous
 62
     7
370
    15
100
AcDbCircle
 10
391.6721752134
 20
-64.2113938497
 30
0.0
 40
1.000000000000004
100
AcDbArc
 50
122.0992772817
 51
219.2800330631
  0
ARC
  5
A66
330
1F
100
AcDbEntity
  8
0
  6
Continuous
 62
     7
370
    15
100
AcDbCircle
 10
390.4490546986
 20
-71.2722359794
 30
0.0
 40
1.000000000000015
100
AcDbArc
 50
121.0647945231
 51
218.2455503045
  0
ARC
  5
A67
330
1F
100
AcDbEntity
  8
0
  6
Continuous
 62
     7
370
    15
100
AcDbCircle
 10
389.0986560418
 20
-78.3098448662
 30
0.0
 40
1.000000000000046
100
AcDbArc
 50
120.0303117644
 51
217.2110675459
  0
ARC
  5
A68
330
1F
100
AcDbEntity
  8
0
  6
Continuous
 62
     7
370
    15
100
AcDbCircle
 10
387.6214194446
 20
-85.3219263982
 30
0.0
 40
0.9999999999999712
100
AcDbArc
 50
118.9958290058
 51
216.1765847873
  0
ARC
  5
A69
330
1F
100
AcDbEntity
  8
0
  6
Continuous
 62
     7
370
    15
100
AcDbCircle
 10
386.0178264548
 20
-92.3061947849
 30
0.0
 40
0.9999999999999395
100
AcDbArc
 50
117.9613462472
 51
215.1421020287
  0
ARC
  5
A6A
330
1F
100
AcDbEntity
  8
0
  6
Continuous
 62
     7
370
    15
100
AcDbCircle
 10
384.2883998098
 20
-99.2603733025
 30
0.0
 40
0.9999999999999952
100
AcDbArc
 50
116.9268634886
 51
214.10761927
  0
ARC
  5
A6B
330
1F
100
AcDbEntity
  8
0
  6
Continuous
 62
     7
370
    15
100
AcDbCircle
 10
382.4337032662
 20
-106.1821950358
 30
0.0
 40
0.9999999999999046
100
AcDbArc
 50
115.89238073
 51
213.0731365114
  0
ARC
  5
A6C
330
1F
100
AcDbEntity
  8
0
  6
Continuous
 62
     7
370
    15
100
AcDbCircle
 10
380.4543414159
 20
-113.069403617
 30
0.0
 40
1.000000000000007
100
AcDbArc
 50
114.8578979713
 51
212.0386537528
  0
ARC
  5
A6D
330
1F
100
AcDbEntity
  8
0
  6
Continuous
 62
     7
370
    15
100
AcDbCircle
 10
378.3509594891
 20
-119.9197539617
 30
0.0
 40
0.9999999999999448
100
AcDbArc
 50
113.8234152127
 51
211.0041709942
  0
ARC
  5
A6E
330
1F
100
AcDbEntity
  8
0
  6
Continuous
 62
     7
370
    15
100
AcDbCircle
 10
376.1242431437
 20
-126.7310130004
 30
0.0
 40
0.9999999999999808
100
AcDbArc
 50
112.7889324541
 51
209.9696882356
  0
ARC
  5
A6F
330
1F
100
AcDbEntity
  8
0
  6
Continuous
 62
     7
370
    15
100
AcDbCircle
 10
373.7749182423
 20
-133.5009604066
 30
0.0
 40
0.9999999999999847
100
AcDbArc
 50
111.7544496955
 51
208.9352054769
  0
ARC
  5
A70
330
1F
100
AcDbEntity
  8
0
  6
Continuous
 62
     7
370
    15
100
AcDbCircle
 10
371.3037506152
 20
-140.2273893205
 30
0.0
 40
1.000000000000057
100
AcDbArc
 50
110.7199669369
 51
207.9007227183
  0
ARC
  5
A71
330
1F
100
AcDbEntity
  8
0
  6
Continuous
 62
     7
370
    15
100
AcDbCircle
 10
368.7115458107
 20
-146.9081070684
 30
0.0
 40
1.000000000000011
100
AcDbArc
 50
109.6854841782
 51
206.8662399597
  0
ARC
  5
A72
330
1F
100
AcDbEntity
  8
0
  6
Continuous
 62
     7
370
    15
100
AcDbCircle
 10
365.9991488329
 20
-153.5409358775
 30
0.0
 40
0.9999999999998848
100
AcDbArc
 50
108.6510014196
 51
205.8317572011
  0
ARC
  5
A73
330
1F
100
AcDbEntity
  8
0
  6
Continuous
 62
     7
370
    15
100
AcDbCircle
 10
363.1674438659
 20
-160.1237135856
 30
0.0
 40
0.9999999999999502
100
AcDbArc
 50
107.616518661
 51
204.7972744425
  0
ARC
  5
A74
330
1F
100
AcDbEntity
  8
0
  6
Continuous
 62
     7
370
    15
100
AcDbCircle
 10
360.2173539856
 20
-166.6542943465
 30
0.0
 40
1.000000000000067
100
AcDbArc
 50
106.5820359024
 51
203.7627916838
  0
ARC
  5
A75
330
1F
100
AcDbEntity
  8
0
  6
Continuous
 62
     7
370
    15
100
AcDbCircle
 10
357.1498408591
 20
-173.1305493286
 30
0.0
 40
0.9999999999999672
100
AcDbArc
 50
105.5475531437
 51
202.7283089252
  0
ARC
  5
A76
330
1F
100
AcDbEntity
  8
0
  6
Continuous
 62
     7
370
    15
100
AcDbCircle
 10
353.9659044308
 20
-179.5503674098
 30
0.0
 40
1.000000000000009
100
AcDbArc
 50
104.5130703851
 51
201.6938261666
  0
ARC
  5
A77
330
1F
100
AcDbEntity
  8
0
  6
Continuous
 62
     7
370
    15
100
AcDbCircle
 10
350.6665825967
 20
-185.911655865
 30
0.0
 40
1.000000000000002
100
AcDbArc
 50
103.4785876265
 51
200.659343408
  0
ARC
  5
A78
330
1F
100
AcDbEntity
  8
0
  6
Continuous
 62
     7
370
    15
100
AcDbCircle
 10
347.252950866
 20
-192.2123410486
 30
0.0
 40
0.9999999999999623
100
AcDbArc
 50
102.4441048679
 51
199.6248606494
  0
ARC
  5
A79
330
1F
100
AcDbEntity
  8
0
  6
Continuous
 62
     7
370
    15
100
AcDbCircle
 10
343.7261220105
 20
-198.4503690703
 30
0.0
 40
1.00000000000003
100
AcDbArc
 50
101.4096221093
 51
198.5903778907
  0
ARC
  5
A7A
330
1F
100
AcDbEntity
  8
0
  6
Continuous
 62
     7
370
    15
100
AcDbCircle
 10
340.087245702
 20
-204.6237064648
 30
0.0
 40
1.000000000000005
100
AcDbArc
 50
100.3751393506
 51
197.5558951321
  0
ARC
  5
A7B
330
1F
100
AcDbEntity
  8
0
  6
Continuous
 62
     7
370
    15
100
AcDbCircle
 10
336.3375081371
 20
-210.7303408545
 30
0.0
 40
0.9999999999999307
100
AcDbArc
 50
99.340656592
 51
196.5214123735
  0
ARC
  5
A7C
330
1F
100
AcDbEntity
  8
0
  6
Continuous
 62
     7
370
    15
100
AcDbCircle
 10
332.4781316511
 20
-216.7682816057
 30
0.0
 40
1.000000000000102
100
AcDbArc
 50
98.3061738334
 51
195.4869296149
  0
ARC
  5
A7D
330
1F
100
AcDbEntity
  8
0
  6
Continuous
 62
     7
370
    15
100
AcDbCircle
 10
328.5103743193
 20
-222.7355604773
 30
0.0
 40
1.000000000000161
100
AcDbArc
 50
97.2716910748
 51
194.4524468562
  0
ARC
  5
A7E
330
1F
100
AcDbEntity
  8
0
  6
Continuous
 62
     7
370
    15
100
AcDbCircle
 10
324.4355295466
 20
-228.6302322624
 30
0.0
 40
0.9999999999999559
100
AcDbArc
 50
96.2372083162
 51
193.4179640976
  0
ARC
  5
A7F
330
1F
100
AcDbEntity
  8
0
  6
Continuous
 62
     7
370
    15
100
AcDbCircle
 10
320.2549256464
 20
-234.4503754225
 30
0.0
 40
0.9999999999999972
100
AcDbArc
 50
95.2027255575
 51
192.383481339
  0
ARC
  5
A80
330
1F
100
AcDbEntity
  8
0
  6
Continuous
 62
     7
370
    15
100
AcDbCircle
 10
315.9699254072
 20
-240.1940927141
 30
0.0
 40
1.000000000000179
100
AcDbArc
 50
94.1682427989
 51
191.3489985804
  0
ARC
  5
A81
330
1F
100
AcDbEntity
  8
0
  6
Continuous
 62
     7
370
    15
100
AcDbCircle
 10
311.5819256485
 20
-245.8595118065
 30
0.0
 40
0.9999999999999126
100
AcDbArc
 50
93.1337600403
 51
190.3145158218
  0
ARC
  5
A82
330
1F
100
AcDbEntity
  8
0
  6
Continuous
 62
     7
370
    15
100
AcDbCircle
 10
307.0923567655
 20
-251.4447858929
 30
0.0
 40
0.9999999999999868
100
AcDbArc
 50
92.0992772817
 51
189.2800330631
  0
ARC
  5
A83
330
1F
100
AcDbEntity
  8
0
  6
Continuous
 62
     7
370
    15
100
AcDbCircle
 10
302.5026822629
 20
-256.948094292
 30
0.0
 40
1.000000000000157
100
AcDbArc
 50
91.0647945231
 51
188.2455503045
  0
ARC
  5
A84
330
1F
100
AcDbEntity
  8
0
  6
Continuous
 62
     7
370
    15
100
AcDbCircle
 10
297.8143982775
 20
-262.3676430415
 30
0.0
 40
0.999999999999998
100
AcDbArc
 50
90.0303117644
 51
187.2110675459
  0
ARC
  5
A85
330
1F
100
AcDbEntity
  8
0
  6
Continuous
 62
     7
370
    15
100
AcDbCircle
 10
293.0290330909
 20
-267.7016654829
 30
0.0
 40
1.000000000000043
100
AcDbArc
 50
88.9958290058
 51
186.1765847873
  0
ARC
  5
A86
330
1F
100
AcDbEntity
  8
0
  6
Continuous
 62
     7
370
    15
100
AcDbCircle
 10
288.148146631
 20
-272.9484228378
 30
0.0
 40
1.000000000000107
100
AcDbArc
 50
87.9613462472
 51
185.1421020287
  0
ARC
  5
A87
330
1F
100
AcDbEntity
  8
0
  6
Continuous
 62
     7
370
    15
100
AcDbCircle
 10
283.1733299637
 20
-278.106204774
 30
0.0
 40
0.9999999999999885
100
AcDbArc
 50
86.9268634886
 51
184.10761927
  0
ARC
  5
A88
330
1F
100
AcDbEntity
  8
0
  6
Continuous
 62
     7
370
    15
100
AcDbCircle
 10
278.106204774
 20
-283.1733299637
 30
0.0
 40
1.000000000000041
100
AcDbArc
 50
85.89238073
 51
183.0731365114
  0
ARC
  5
A89
330
1F
100
AcDbEntity
  8
0
  6
Continuous
 62
     7
370
    15
100
AcDbCircle
 10
272.9484228378
 20
-288.148146631
 30
0.0
 40
1.000000000000078
100
AcDbArc
 50
84.8578979713
 51
182.0386537528
  0
ARC
  5
A8A
330
1F
100
AcDbEntity
  8
0
  6
Continuous
 62
     7
370
    15
100
AcDbCircle
 10
267.7016654829
 20
-293.0290330909
 30
0.0
 40
1.000000000000012
100
AcDbArc
 50
83.8234152127
 51
181.0041709942
  0
ARC
  5
A8B
330
1F
100
AcDbEntity
  8
0
  6
Continuous
 62
     7
370
    15
100
AcDbCircle
 10
262.3676430415
 20
-297.8143982775
 30
0.0
 40
0.999999999999998
100
AcDbArc
 50
82.7889324541
 51
179.9696882356
  0
ARC
  5
A8C
330
1F
100
AcDbEntity
  8
0
  6
Continuous
 62
     7
370
    15
100
AcDbCircle
 10
256.948094292
 20
-302.5026822629
 30
0.0
 40
0.9999999999999104
100
AcDbArc
 50
81.7544496955
 51
178.9352054769
  0
ARC
  5
A8D
330
1F
100
AcDbEntity
  8
0
  6
Continuous
 62
     7
370
    15
100
AcDbCircle
 10
251.4447858929
 20
-307.0923567655
 30
0.0
 40
0.9999999999999714
100
AcDbArc
 50
80.7199669369
 51
177.9007227183
  0
ARC
  5
A8E
330
1F
100
AcDbEntity
  8
0
  6
Continuous
 62
     7
370
    15
100
AcDbCircle
 10
245.8595118065
 20
-311.5819256485
 30
0.0
 40
1.000000000000036
100
AcDbArc
 50
79.6854841782
 51
176.8662399597
  0
ARC
  5
A8F
330
1F
100
AcDbEntity
  8
0
  6
Continuous
 62
     7
370
    15
100
AcDbCircle
 10
240.194092714
 20
-315.9699254072
 30
0.0
 40
1.000000000000125
100
AcDbArc
 50
78.6510014196
 51
175.8317572011
  0
ARC
  5
A90
330
1F
100
AcDbEntity
  8
0
  6
Continuous
 62
     7
370
    15
100
AcDbCircle
 10
234.4503754225
 20
-320.2549256464
 30
0.0
 40
1.000000000000041
100
AcDbArc
 50
77.616518661
 51
174.7972744424
  0
ARC
  5
A91
330
1F
100
AcDbEntity
  8
0
  6
Continuous
 62
     7
370
    15
100
AcDbCircle
 10
228.6302322624
 20
-324.4355295466
 30
0.0
 40
0.9999999999999903
100
AcDbArc
 50
76.5820359024
 51
173.7627916838
  0
ARC
  5
A92
330
1F
100
AcDbEntity
  8
0
  6
Continuous
 62
     7
370
    15
100
AcDbCircle
 10
222.7355604773
 20
-328.5103743193
 30
0.0
 40
1.000000000000013
100
AcDbArc
 50
75.5475531438
 51
172.7283089252
  0
ARC
  5
A93
330
1F
100
AcDbEntity
  8
0
  6
Continuous
 62
     7
370
    15
100
AcDbCircle
 10
216.7682816057
 20
-332.4781316512
 30
0.0
 40
0.9999999999999696
100
AcDbArc
 50
74.5130703851
 51
171.6938261666
  0
ARC
  5
A94
330
1F
100
AcDbEntity
  8
0
  6
Continuous
 62
     7
370
    15
100
AcDbCircle
 10
210.7303408545
 20
-336.3375081371
 30
0.0
 40
0.9999999999999453
100
AcDbArc
 50
73.4785876265
 51
170.659343408
  0
ARC
  5
A95
330
1F
100
AcDbEntity
  8
0
  6
Continuous
 62
     7
370
    15
100
AcDbCircle
 10
204.6237064648
 20
-340.087245702
 30
0.0
 40
0.9999999999999164
100
AcDbArc
 50
72.4441048679
 51
169.6248606494
  0
ARC
  5
A96
330
1F
100
AcDbEntity
  8
0
  6
Continuous
 62
     7
370
    15
100
AcDbCircle
 10
198.4503690703
 20
-343.7261220105
 30
0.0
 40
0.9999999999999407
100
AcDbArc
 50
71.4096221093
 51
168.5903778907
  0
ARC
  5
A97
330
1F
100
AcDbEntity
  8
0
  6
Continuous
 62
     7
370
    15
100
AcDbCircle
 10
192.2123410486
 20
-347.252950866
 30
0.0
 40
1.000000000000017
100
AcDbArc
 50
70.3751393506
 51
167.5558951321
  0
ARC
  5
A98
330
1F
100
AcDbEntity
  8
0
  6
Continuous
 62
     7
370
    15
100
AcDbCircle
 10
185.911655865
 20
-350.6665825967
 30
0.0
 40
1.000000000000078
100
AcDbArc
 50
69.340656592
 51
166.5214123735
  0
ARC
  5
A99
330
1F
100
AcDbEntity
  8
0
  6
Continuous
 62
     7
370
    15
100
AcDbCircle
 10
179.5503674098
 20
-353.9659044308
 30
0.0
 40
0.9999999999999543
100
AcDbArc
 50
68.3061738334
 51
165.4869296149
  0
ARC
  5
A9A
330
1F
100
AcDbEntity
  8
0
  6
Continuous
 62
     7
370
    15
100
AcDbCircle
 10
173.1305493286
 20
-357.1498408591
 30
0.0
 40
1.000000000000069
100
AcDbArc
 50
67.2716910748
 51
164.4524468562
  0
ARC
  5
A9B
330
1F
100
AcDbEntity
  8
0
  6
Continuous
 62
     7
370
    15
100
AcDbCircle
 10
166.6542943465
 20
-360.2173539856
 30
0.0
 40
0.9999999999999963
100
AcDbArc
 50
66.2372083162
 51
163.4179640976
  0
ARC
  5
A9C
330
1F
100
AcDbEntity
  8
0
  6
Continuous
 62
     7
370
    15
100
AcDbCircle
 10
160.1237135856
 20
-363.1674438659
 30
0.0
 40
0.9999999999999898
100
AcDbArc
 50
65.2027255575
 51
162.383481339
  0
ARC
  5
A9D
330
1F
100
AcDbEntity
  8
0
  6
Continuous
 62
     7
370
    15
100
AcDbCircle
 10
153.5409358775
 20
-365.9991488329
 30
0.0
 40
0.9999999999999254
100
AcDbArc
 50
64.1682427989
 51
161.3489985804
  0
ARC
  5
A9E
330
1F
100
AcDbEntity
  8
0
  6
Continuous
 62
     7
370
    15
100
AcDbCircle
 10
146.9081070684
 20
-368.7115458107
 30
0.0
 40
1.000000000000057
100
AcDbArc
 50
63.1337600403
 51
160.3145158218
  0
ARC
  5
A9F
330
1F
100
AcDbEntity
  8
0
  6
Continuous
 62
     7
370
    15
100
AcDbCircle
 10
140.2273893205
 20
-371.3037506152
 30
0.0
 40
0.999999999999976
100
AcDbArc
 50
62.0992772817
 51
159.2800330631
  0
ARC
  5
AA0
330
1F
100
AcDbEntity
  8
0
  6
Continuous
 62
     7
370
    15
100
AcDbCircle
 10
133.5009604066
 20
-373.7749182423
 30
0.0
 40
1.000000000000057
100
AcDbArc
 50
61.0647945231
 51
158.2455503045
  0
ARC
  5
AA1
330
1F
100
AcDbEntity
  8
0
  6
Continuous
 62
     7
370
    15
100
AcDbCircle
 10
126.7310130004
 20
-376.1242431437
 30
0.0
 40
1.000000000000028
100
AcDbArc
 50
60.0303117644
 51
157.2110675459
  0
ARC
  5
AA2
330
1F
100
AcDbEntity
  8
0
  6
Continuous
 62
     7
370
    15
100
AcDbCircle
 10
119.9197539617
 20
-378.3509594891
 30
0.0
 40
1.0
100
AcDbArc
 50
58.9958290058
 51
156.1765847873
  0
ARC
  5
AA3
330
1F
100
AcDbEntity
  8
0
  6
Continuous
 62
     7
370
    15
100
AcDbCircle
 10
113.069403617
 20
-380.4543414159
 30
0.0
 40
0.9999999999999798
100
AcDbArc
 50
57.9613462472
 51
155.1421020287
  0
ARC
  5
AA4
330
1F
100
AcDbEntity
  8
0
  6
Continuous
 62
     7
370
    15
100
AcDbCircle
 10
106.1821950358
 20
-382.4337032662
 30
0.0
 40
1.000000000000007
100
AcDbArc
 50
56.9268634886
 51
154.10761927
  0
ARC
  5
AA5
330
1F
100
AcDbEntity
  8
0
  6
Continuous
 62
     7
370
    15
100
AcDbCircle
 10
99.2603733025
 20
-384.2883998098
 30
0.0
 40
0.9999999999999133
100
AcDbArc
 50
55.89238073
 51
153.0731365114
  0
ARC
  5
AA6
330
1F
100
AcDbEntity
  8
0
  6
Continuous
 62
     7
370
    15
100
AcDbCircle
 10
92.3061947849
 20
-386.0178264548
 30
0.0
 40
1.000000000000046
100
AcDbArc
 50
54.8578979713
 51
152.0386537528
  0
ARC
  5
AA7
330
1F
100
AcDbEntity
  8
0
  6
Continuous
 62
     7
370
    15
100
AcDbCircle
 10
85.3219263982
 20
-387.6214194446
 30
0.0
 40
0.9999999999999266
100
AcDbArc
 50
53.8234152127
 51
151.0041709942
  0
ARC
  5
AA8
330
1F
100
AcDbEntity
  8
0
  6
Continuous
 62
     7
370
    15
100
AcDbCircle
 10
78.3098448662
 20
-389.0986560418
 30
0.0
 40
1.000000000000003
100
AcDbArc
 50
52.7889324541
 51
149.9696882356
  0
ARC
  5
AA9
330
1F
100
AcDbEntity
  8
0
  6
Continuous
 62
     7
370
    15
100
AcDbCircle
 10
71.2722359794
 20
-390.4490546986
 30
0.0
 40
1.000000000000078
100
AcDbArc
 50
51.7544496955
 51
148.9352054769
  0
ARC
  5
AAA
330
1F
100
AcDbEntity
  8
0
  6
Continuous
 62
     7
370
    15
100
AcDbCircle
 10
64.2113938496
 20
-391.6721752134
 30
0.0
 40
1.000000000000022
100
AcDbArc
 50
50.7199669369
 51
147.9007227183
  0
ARC
  5
AAB
330
1F
100
AcDbEntity
  8
0
  6
Continuous
 62
     7
370
    15
100
AcDbCircle
 10
57.1296201622
 20
-392.7676188749
 30
0.0
 40
0.9999999999999988
100
AcDbArc
 50
49.6854841782
 51
146.8662399597
  0
ARC
  5
AAC
330
1F
100
AcDbEntity
  8
0
  6
Continuous
 62
     7
370
    15
100
AcDbCircle
 10
50.0292234257
 20
-393.7350285915
 30
0.0
 40
1.000000000000003
100
AcDbArc
 50
48.6510014196
 51
145.8317572011
  0
ARC
  5
AAD
330
1F
100
AcDbEntity
  8
0
  6
Continuous
 62
     7
370
    15
100
AcDbCircle
 10
42.9125182195
 20
-394.5740890081
 30
0.0
 40
1.000000000000009
100
AcDbArc
 50
47.616518661
 51
144.7972744425
  0
ARC
  5
AAE
330
1F
100
AcDbEntity
  8
0
  6
Continuous
 62
     7
370
    15
100
AcDbCircle
 10
35.781824439
 20
-395.2845266088
 30
0.0
 40
1.000000000000018
100
AcDbArc
 50
46.5820359024
 51
143.7627916838
  0
ARC
  5
AAF
330
1F
100
AcDbEntity
  8
0
  6
Continuous
 62
     7
370
    15
100
AcDbCircle
 10
28.6394665398
 20
-395.8661098059
 30
0.0
 40
0.9999999999999356
100
AcDbArc
 50
45.5475531438
 51
142.7283089252
  0
ARC
  5
AB0
330
1F
100
AcDbEntity
  8
0
  6
Continuous
 62
     7
370
    15
100
AcDbCircle
 10
21.4877727797
 20
-396.3186490155
 30
0.0
 40
0.999999999999862
100
AcDbArc
 50
44.5130703851
 51
141.6938261666
  0
ARC
  5
AB1
330
1F
100
AcDbEntity
  8
0
  6
Continuous
 62
     7
370
    15
100
AcDbCircle
 10
14.3290744596
 20
-396.6419967195
 30
0.0
 40
0.9999999999999338
100
AcDbArc
 50
43.4785876265
 51
140.659343408
  0
ARC
  5
AB2
330
1F
100
AcDbEntity
  8
0
  6
Continuous
 62
     7
370
    15
100
AcDbCircle
 10
7.165705164
 20
-396.8360475134
 30
0.0
 40
0.9999999999999889
100
AcDbArc
 50
42.4441048679
 51
139.6248606494
  0
ARC
  5
AB3
330
1F
100
AcDbEntity
  8
0
  6
Continuous
 62
     7
370
    15
100
AcDbCircle
 10
0.0
 20
-396.9007381406
 30
0.0
 40
0.9999999999999833
100
AcDbArc
 50
41.4096221093
 51
138.5903778907
  0
ARC
  5
AB4
330
1F
100
AcDbEntity
  8
0
  6
Continuous
 62
     7
370
    15
100
AcDbCircle
 10
-7.1657051641
 20
-396.8360475134
 30
0.0
 40
0.9999999999999835
100
AcDbArc
 50
40.3751393506
 51
137.5558951321
  0
ARC
  5
AB5
330
1F
100
AcDbEntity
  8
0
  6
Continuous
 62
     7
370
    15
100
AcDbCircle
 10
-14.3290744596
 20
-396.6419967195
 30
0.0
 40
1.000000000000051
100
AcDbArc
 50
39.340656592
 51
136.5214123735
  0
ARC
  5
AB6
330
1F
100
AcDbEntity
  8
0
  6
Continuous
 62
     7
370
    15
100
AcDbCircle
 10
-21.4877727797
 20
-396.3186490155
 30
0.0
 40
0.9999999999999353
100
AcDbArc
 50
38.3061738334
 51
135.4869296149
  0
ARC
  5
AB7
330
1F
100
AcDbEntity
  8
0
  6
Continuous
 62
     7
370
    15
100
AcDbCircle
 10
-28.6394665398
 20
-395.8661098059
 30
0.0
 40
1.000000000000013
100
AcDbArc
 50
37.2716910748
 51
134.4524468562
  0
ARC
  5
AB8
330
1F
100
AcDbEntity
  8
0
  6
Continuous
 62
     7
370
    15
100
AcDbCircle
 10
-35.781824439
 20
-395.2845266088
 30
0.0
 40
0.9999999999999826
100
AcDbArc
 50
36.2372083162
 51
133.4179640976
  0
ARC
  5
AB9
330
1F
100
AcDbEntity
  8
0
  6
Continuous
 62
     7
370
    15
100
AcDbCircle
 10
-42.9125182195
 20
-394.5740890081
 30
0.0
 40
1.000000000000009
100
AcDbArc
 50
35.2027255575
 51
132.383481339
  0
ARC
  5
ABA
330
1F
100
AcDbEntity
  8
0
  6
Continuous
 62
     7
370
    15
100
AcDbCircle
 10
-50.0292234257
 20
-393.7350285915
 30
0.0
 40
1.000000000000013
100
AcDbArc
 50
34.1682427989
 51
131.3489985804
  0
ARC
  5
ABB
330
1F
100
AcDbEntity
  8
0
  6
Continuous
 62
     7
370
    15
100
AcDbCircle
 10
-57.1296201622
 20
-392.7676188749
 30
0.0
 40
0.9999999999999868
100
AcDbArc
 50
33.1337600403
 51
130.3145158218
  0
ARC
  5
ABC
330
1F
100
AcDbEntity
  8
0
  6
Continuous
 62
     7
370
    15
100
AcDbCircle
 10
-64.2113938497
 20
-391.6721752134
 30
0.0
 40
0.9999999999999161
100
AcDbArc
 50
32.0992772817
 51
129.2800330631
  0
ARC
  5
ABD
330
1F
100
AcDbEntity
  8
0
  6
Continuous
 62
     7
370
    15
100
AcDbCircle
 10
-71.2722359794
 20
-390.4490546986
 30
0.0
 40
1.000000000000054
100
AcDbArc
 50
31.0647945231
 51
128.2455503045
  0
ARC
  5
ABE
330
1F
100
AcDbEntity
  8
0
  6
Continuous
 62
     7
370
    15
100
AcDbCircle
 10
-78.3098448662
 20
-389.0986560418
 30
0.0
 40
1.000000000000021
100
AcDbArc
 50
30.0303117644
 51
127.2110675459
  0
ARC
  5
ABF
330
1F
100
AcDbEntity
  8
0
  6
Continuous
 62
     7
370
    15
100
AcDbCircle
 10
-85.3219263982
 20
-387.6214194446
 30
0.0
 40
1.0
100
AcDbArc
 50
28.9958290058
 51
126.1765847873
  0
ARC
  5
AC0
330
1F
100
AcDbEntity
  8
0
  6
Continuous
 62
     7
370
    15
100
AcDbCircle
 10
-92.3061947849
 20
-386.0178264548
 30
0.0
 40
0.9999999999998767
100
AcDbArc
 50
27.9613462472
 51
125.1421020287
  0
ARC
  5
AC1
330
1F
100
AcDbEntity
  8
0
  6
Continuous
 62
     7
370
    15
100
AcDbCircle
 10
-99.2603733025
 20
-384.2883998098
 30
0.0
 40
1.000000000000018
100
AcDbArc
 50
26.9268634886
 51
124.10761927
  0
ARC
  5
AC2
330
1F
100
AcDbEntity
  8
0
  6
Continuous
 62
     7
370
    15
100
AcDbCircle
 10
-106.1821950358
 20
-382.4337032662
 30
0.0
 40
0.9999999999999678
100
AcDbArc
 50
25.89238073
 51
123.0731365114
  0
ARC
  5
AC3
330
1F
100
AcDbEntity
  8
0
  6
Continuous
 62
     7
370
    15
100
AcDbCircle
 10
-113.069403617
 20
-380.4543414159
 30
0.0
 40
0.9999999999999946
100
AcDbArc
 50
24.8578979713
 51
122.0386537528
  0
ARC
  5
AC4
330
1F
100
AcDbEntity
  8
0
  6
Continuous
 62
     7
370
    15
100
AcDbCircle
 10
-119.9197539617
 20
-378.3509594891
 30
0.0
 40
0.9999999999998921
100
AcDbArc
 50
23.8234152127
 51
121.0041709942
  0
ARC
  5
AC5
330
1F
100
AcDbEntity
  8
0
  6
Continuous
 62
     7
370
    15
100
AcDbCircle
 10
-126.7310130004
 20
-376.1242431437
 30
0.0
 40
0.9999999999999801
100
AcDbArc
 50
22.7889324541
 51
119.9696882356
  0
ARC
  5
AC6
330
1F
100
AcDbEntity
  8
0
  6
Continuous
 62
     7
370
    15
100
AcDbCircle
 10
-133.5009604066
 20
-373.7749182423
 30
0.0
 40
1.000000000000007
100
AcDbArc
 50
21.7544496955
 51
118.9352054769
  0
ARC
  5
AC7
330
1F
100
AcDbEntity
  8
0
  6
Continuous
 62
     7
370
    15
100
AcDbCircle
 10
-140.2273893205
 20
-371.3037506152
 30
0.0
 40
1.000000000000057
100
AcDbArc
 50
20.7199669369
 51
117.9007227183
  0
ARC
  5
AC8
330
1F
100
AcDbEntity
  8
0
  6
Continuous
 62
     7
370
    15
100
AcDbCircle
 10
-146.9081070684
 20
-368.7115458107
 30
0.0
 40
0.9999999999999771
100
AcDbArc
 50
19.6854841782
 51
116.8662399597
  0
ARC
  5
AC9
330
1F
100
AcDbEntity
  8
0
  6
Continuous
 62
     7
370
    15
100
AcDbCircle
 10
-153.5409358775
 20
-365.9991488329
 30
0.0
 40
0.9999999999998972
100
AcDbArc
 50
18.6510014196
 51
115.8317572011
  0
ARC
  5
ACA
330
1F
100
AcDbEntity
  8
0
  6
Continuous
 62
     7
370
    15
100
AcDbCircle
 10
-160.1237135856
 20
-363.1674438659
 30
0.0
 40
0.9999999999999651
100
AcDbArc
 50
17.616518661
 51
114.7972744425
  0
ARC
  5
ACB
330
1F
100
AcDbEntity
  8
0
  6
Continuous
 62
     7
370
    15
100
AcDbCircle
 10
-166.6542943465
 20
-360.2173539856
 30
0.0
 40
0.9999999999999529
100
AcDbArc
 50
16.5820359024
 51
113.7627916838
  0
ARC
  5
ACC
330
1F
100
AcDbEntity
  8
0
  6
Continuous
 62
     7
370
    15
100
AcDbCircle
 10
-173.1305493286
 20
-357.1498408591
 30
0.0
 40
1.00000000000005
100
AcDbArc
 50
15.5475531438
 51
112.7283089252
  0
ARC
  5
ACD
330
1F
100
AcDbEntity
  8
0
  6
Continuous
 62
     7
370
    15
100
AcDbCircle
 10
-179.5503674098
 20
-353.9659044308
 30
0.0
 40
0.9999999999999399
100
AcDbArc
 50
14.5130703851
 51
111.6938261666
  0
ARC
  5
ACE
330
1F
100
AcDbEntity
  8
0
  6
Continuous
 62
     7
370
    15
100
AcDbCircle
 10
-185.911655865
 20
-350.6665825967
 30
0.0
 40
1.000000000000098
100
AcDbArc
 50
13.4785876265
 51
110.659343408
  0
ARC
  5
ACF
330
1F
100
AcDbEntity
  8
0
  6
Continuous
 62
     7
370
    15
100
AcDbCircle
 10
-192.2123410486
 20
-347.252950866
 30
0.0
 40
1.000000000000002
100
AcDbArc
 50
12.4441048679
 51
109.6248606493
  0
ARC
  5
AD0
330
1F
100
AcDbEntity
  8
0
  6
Continuous
 62
     7
370
    15
100
AcDbCircle
 10
-198.4503690703
 20
-343.7261220105
 30
0.0
 40
0.9999999999999946
100
AcDbArc
 50
11.4096221093
 51
108.5903778907
  0
ARC
  5
AD1
330
1F
100
AcDbEntity
  8
0
  6
Continuous
 62
     7
370
    15
100
AcDbCircle
 10
-204.6237064648
 20
-340.087245702
 30
0.0
 40
0.9999999999999449
100
AcDbArc
 50
10.3751393506
 51
107.5558951321
  0
ARC
  5
AD2
330
1F
100
AcDbEntity
  8
0
  6
Continuous
 62
     7
370
    15
100
AcDbCircle
 10
-210.7303408545
 20
-336.3375081371
 30
0.0
 40
0.999999999999996
100
AcDbArc
 50
9.340656592
 51
106.5214123735
  0
ARC
  5
AD3
330
1F
100
AcDbEntity
  8
0
  6
Continuous
 62
     7
370
    15
100
AcDbCircle
 10
-216.7682816057
 20
-332.4781316511
 30
0.0
 40
0.9999999999999696
100
AcDbArc
 50
8.3061738334
 51
105.4869296149
  0
ARC
  5
AD4
330
1F
100
AcDbEntity
  8
0
  6
Continuous
 62
     7
370
    15
100
AcDbCircle
 10
-222.7355604773
 20
-328.5103743193
 30
0.0
 40
0.9999999999999774
100
AcDbArc
 50
7.2716910748
 51
104.4524468562
  0
ARC
  5
AD5
330
1F
100
AcDbEntity
  8
0
  6
Continuous
 62
     7
370
    15
100
AcDbCircle
 10
-228.6302322624
 20
-324.4355295466
 30
0.0
 40
1.000000000000028
100
AcDbArc
 50
6.2372083162
 51
103.4179640976
  0
ARC
  5
AD6
330
1F
100
AcDbEntity
  8
0
  6
Continuous
 62
     7
370
    15
100
AcDbCircle
 10
-234.4503754225
 20
-320.2549256464
 30
0.0
 40
0.999999999999987
100
AcDbArc
 50
5.2027255575
 51
102.383481339
  0
ARC
  5
AD7
330
1F
100
AcDbEntity
  8
0
  6
Continuous
 62
     7
370
    15
100
AcDbCircle
 10
-240.1940927141
 20
-315.9699254072
 30
0.0
 40
0.9999999999999694
100
AcDbArc
 50
4.1682427989
 51
101.3489985804
  0
ARC
  5
AD8
330
1F
100
AcDbEntity
  8
0
  6
Continuous
 62
     7
370
    15
100
AcDbCircle
 10
-245.8595118065
 20
-311.5819256485
 30
0.0
 40
1.00000000000012
100
AcDbArc
 50
3.1337600403
 51
100.3145158218
  0
ARC
  5
AD9
330
1F
100
AcDbEntity
  8
0
  6
Continuous
 62
     7
370
    15
100
AcDbCircle
 10
-251.4447858929
 20
-307.0923567655
 30
0.0
 40
0.9999999999999868
100
AcDbArc
 50
2.0992772817
 51
99.2800330631
  0
ARC
  5
ADA
330
1F
100
AcDbEntity
  8
0
  6
Continuous
 62
     7
370
    15
100
AcDbCircle
 10
-256.948094292
 20
-302.5026822629
 30
0.0
 40
0.9999999999999694
100
AcDbArc
 50
1.0647945231
 51
98.2455503045
  0
ARC
  5
ADB
330
1F
100
AcDbEntity
  8
0
  6
Continuous
 62
     7
370
    15
100
AcDbCircle
 10
-262.3676430415
 20
-297.8143982775
 30
0.0
 40
1.00000000000003
100
AcDbArc
 50
0.0303117644
 51
97.2110675459
  0
ARC
  5
ADC
330
1F
100
AcDbEntity
  8
0
  6
Continuous
 62
     7
370
    15
100
AcDbCircle
 10
-267.7016654829
 20
-293.0290330909
 30
0.0
 40
1.000000000000018
100
AcDbArc
 50
358.9958290058
 51
96.1765847873
  0
ARC
  5
ADD
330
1F
100
AcDbEntity
  8
0
  6
Continuous
 62
     7
370
    15
100
AcDbCircle
 10
-272.9484228378
 20
-288.148146631
 30
0.0
 40
0.9999999999998959
100
AcDbArc
 50
357.9613462472
 51
95.1421020287
  0
ARC
  5
ADE
330
1F
100
AcDbEntity
  8
0
  6
Continuous
 62
     7
370
    15
100
AcDbCircle
 10
-278.106204774
 20
-283.1733299637
 30
0.0
 40
0.9999999999999885
100
AcDbArc
 50
356.9268634886
 51
94.10761927
  0
ARC
  5
ADF
330
1F
100
AcDbEntity
  8
0
  6
Continuous
 62
     7
370
    15
100
AcDbCircle
 10
-283.1733299637
 20
-278.106204774
 30
0.0
 40
0.9999999999999439
100
AcDbArc
 50
355.89238073
 51
93.0731365114
  0
ARC
  5
AE0
330
1F
100
AcDbEntity
  8
0
  6
Continuous
 62
     7
370
    15
100
AcDbCircle
 10
-288.148146631
 20
-272.9484228378
 30
0.0
 40
1.00000000000005
100
AcDbArc
 50
354.8578979713
 51
92.0386537528
  0
ARC
  5
AE1
330
1F
100
AcDbEntity
  8
0
  6
Continuous
 62
     7
370
    15
100
AcDbCircle
 10
-293.0290330909
 20
-267.7016654829
 30
0.0
 40
1.000000000000119
100
AcDbArc
 50
353.8234152127
 51
91.0041709942
  0
ARC
  5
AE2
330
1F
100
AcDbEntity
  8
0
  6
Continuous
 62
     7
370
    15
100
AcDbCircle
 10
-297.8143982775
 20
-262.3676430415
 30
0.0
 40
0.9999999999999162
100
AcDbArc
 50
352.7889324541
 51
89.9696882356
  0
ARC
  5
AE3
330
1F
100
AcDbEntity
  8
0
  6
Continuous
 62
     7
370
    15
100
AcDbCircle
 10
-302.5026822629
 20
-256.948094292
 30
0.0
 40
0.999999999999917
100
AcDbArc
 50
351.7544496955
 51
88.9352054769
  0
ARC
  5
AE4
330
1F
100
AcDbEntity
  8
0
  6
Continuous
 62
     7
370
    15
100
AcDbCircle
 10
-307.0923567655
 20
-251.4447858929
 30
0.0
 40
0.9999999999999301
100
AcDbArc
 50
350.7199669369
 51
87.9007227183
  0
ARC
  5
AE5
330
1F
100
AcDbEntity
  8
0
  6
Continuous
 62
     7
370
    15
100
AcDbCircle
 10
-311.5819256485
 20
-245.8595118065
 30
0.0
 40
1.000000000000019
100
AcDbArc
 50
349.6854841782
 51
86.8662399597
  0
ARC
  5
AE6
330
1F
100
AcDbEntity
  8
0
  6
Continuous
 62
     7
370
    15
100
AcDbCircle
 10
-315.9699254072
 20
-240.194092714
 30
0.0
 40
0.9999999999999928
100
AcDbArc
 50
348.6510014196
 51
85.8317572011
  0
ARC
  5
AE7
330
1F
100
AcDbEntity
  8
0
  6
Continuous
 62
     7
370
    15
100
AcDbCircle
 10
-320.2549256464
 20
-234.4503754225
 30
0.0
 40
1.000000000000054
100
AcDbArc
 50
347.616518661
 51
84.7972744425
  0
ARC
  5
AE8
330
1F
100
AcDbEntity
  8
0
  6
Continuous
 62
     7
370
    15
100
AcDbCircle
 10
-324.4355295466
 20
-228.6302322624
 30
0.0
 40
1.000000000000087
100
AcDbArc
 50
346.5820359024
 51
83.7627916838
  0
ARC
  5
AE9
330
1F
100
AcDbEntity
  8
0
  6
Continuous
 62
     7
370
    15
100
AcDbCircle
 10
-328.5103743193
 20
-222.7355604773
 30
0.0
 40
0.9999999999999779
100
AcDbArc
 50
345.5475531438
 51
82.7283089252
  0
ARC
  5
AEA
330
1F
100
AcDbEntity
  8
0
  6
Continuous
 62
     7
370
    15
100
AcDbCircle
 10
-332.4781316512
 20
-216.7682816057
 30
0.0
 40
0.9999999999999564
100
AcDbArc
 50
344.5130703851
 51
81.6938261666
  0
ARC
  5
AEB
330
1F
100
AcDbEntity
  8
0
  6
Continuous
 62
     7
370
    15
100
AcDbCircle
 10
-336.3375081371
 20
-210.7303408545
 30
0.0
 40
0.9999999999999492
100
AcDbArc
 50
343.4785876265
 51
80.659343408
  0
ARC
  5
AEC
330
1F
100
AcDbEntity
  8
0
  6
Continuous
 62
     7
370
    15
100
AcDbCircle
 10
-340.087245702
 20
-204.6237064648
 30
0.0
 40
1.000000000000054
100
AcDbArc
 50
342.4441048679
 51
79.6248606493
  0
ARC
  5
AED
330
1F
100
AcDbEntity
  8
0
  6
Continuous
 62
     7
370
    15
100
AcDbCircle
 10
-343.7261220105
 20
-198.4503690703
 30
0.0
 40
0.9999999999999591
100
AcDbArc
 50
341.4096221093
 51
78.5903778907
  0
ARC
  5
AEE
330
1F
100
AcDbEntity
  8
0
  6
Continuous
 62
     7
370
    15
100
AcDbCircle
 10
-347.252950866
 20
-192.2123410486
 30
0.0
 40
1.000000000000007
100
AcDbArc
 50
340.3751393506
 51
77.5558951321
  0
ARC
  5
AEF
330
1F
100
AcDbEntity
  8
0
  6
Continuous
 62
     7
370
    15
100
AcDbCircle
 10
-350.6665825967
 20
-185.911655865
 30
0.0
 40
1.000000000000024
100
AcDbArc
 50
339.340656592
 51
76.5214123735
  0
ARC
  5
AF0
330
1F
100
AcDbEntity
  8
0
  6
Continuous
 62
     7
370
    15
100
AcDbCircle
 10
-353.9659044308
 20
-179.5503674098
 30
0.0
 40
0.9999999999999257
100
AcDbArc
 50
338.3061738334
 51
75.4869296149
  0
ARC
  5
AF1
330
1F
100
AcDbEntity
  8
0
  6
Continuous
 62
     7
370
    15
100
AcDbCircle
 10
-357.1498408591
 20
-173.1305493286
 30
0.0
 40
1.000000000000027
100
AcDbArc
 50
337.2716910748
 51
74.4524468562
  0
ARC
  5
AF2
330
1F
100
AcDbEntity
  8
0
  6
Continuous
 62
     7
370
    15
100
AcDbCircle
 10
-360.2173539857
 20
-166.6542943465
 30
0.0
 40
1.000000000000115
100
AcDbArc
 50
336.2372083162
 51
73.4179640976
  0
ARC
  5
AF3
330
1F
100
AcDbEntity
  8
0
  6
Continuous
 62
     7
370
    15
100
AcDbCircle
 10
-363.1674438659
 20
-160.1237135856
 30
0.0
 40
1.000000000000054
100
AcDbArc
 50
335.2027255575
 51
72.383481339
  0
ARC
  5
AF4
330
1F
100
AcDbEntity
  8
0
  6
Continuous
 62
     7
370
    15
100
AcDbCircle
 10
-365.9991488329
 20
-153.5409358775
 30
0.0
 40
0.9999999999999236
100
AcDbArc
 50
334.1682427989
 51
71.3489985804
  0
ARC
  5
AF5
330
1F
100
AcDbEntity
  8
0
  6
Continuous
 62
     7
370
    15
100
AcDbCircle
 10
-368.7115458107
 20
-146.9081070684
 30
0.0
 40
1.000000000000011
100
AcDbArc
 50
333.1337600403
 51
70.3145158218
  0
ARC
  5
AF6
330
1F
100
AcDbEntity
  8
0
  6
Continuous
 62
     7
370
    15
100
AcDbCircle
 10
-371.3037506152
 20
-140.2273893205
 30
0.0
 40
0.999999999999976
100
AcDbArc
 50
332.0992772817
 51
69.2800330631
  0
ARC
  5
AF7
330
1F
100
AcDbEntity
  8
0
  6
Continuous
 62
     7
370
    15
100
AcDbCircle
 10
-373.7749182423
 20
-133.5009604066
 30
0.0
 40
0.9999999999999349
100
AcDbArc
 50
331.0647945231
 51
68.2455503045
  0
ARC
  5
AF8
330
1F
100
AcDbEntity
  8
0
  6
Continuous
 62
     7
370
    15
100
AcDbCircle
 10
-376.1242431437
 20
-126.7310130004
 30
0.0
 40
0.9999999999999581
100
AcDbArc
 50
330.0303117644
 51
67.2110675459
  0
ARC
  5
AF9
330
1F
100
AcDbEntity
  8
0
  6
Continuous
 62
     7
370
    15
100
AcDbCircle
 10
-378.3509594891
 20
-119.9197539617
 30
0.0
 40
0.9999999999999641
100
AcDbArc
 50
328.9958290058
 51
66.1765847873
  0
ARC
  5
AFA
330
1F
100
AcDbEntity
  8
0
  6
Continuous
 62
     7
370
    15
100
AcDbCircle
 10
-380.4543414159
 20
-113.069403617
 30
0.0
 40
0.9999999999999996
100
AcDbArc
 50
327.9613462472
 51
65.1421020287
  0
ARC
  5
AFB
330
1F
100
AcDbEntity
  8
0
  6
Continuous
 62
     7
370
    15
100
AcDbCircle
 10
-382.4337032662
 20
-106.1821950358
 30
0.0
 40
0.9999999999999678
100
AcDbArc
 50
326.9268634886
 51
64.10761927
  0
ARC
  5
AFC
330
1F
100
AcDbEntity
  8
0
  6
Continuous
 62
     7
370
    15
100
AcDbCircle
 10
-384.2883998098
 20
-99.2603733025
 30
0.0
 40
0.9999999999999133
100
AcDbArc
 50
325.89238073
 51
63.0731365114
  0
ARC
  5
AFD
330
1F
100
AcDbEntity
  8
0
  6
Continuous
 62
     7
370
    15
100
AcDbCircle
 10
-386.0178264548
 20
-92.3061947849
 30
0.0
 40
0.9999999999999997
100
AcDbArc
 50
324.8578979713
 51
62.0386537528
  0
ARC
  5
AFE
330
1F
100
AcDbEntity
  8
0
  6
Continuous
 62
     7
370
    15
100
AcDbCircle
 10
-387.6214194446
 20
-85.3219263982
 30
0.0
 40
0.9999999999999836
100
AcDbArc
 50
323.8234152127
 51
61.0041709942
  0
ARC
  5
AFF
330
1F
100
AcDbEntity
  8
0
  6
Continuous
 62
     7
370
    15
100
AcDbCircle
 10
-389.0986560418
 20
-78.3098448662
 30
0.0
 40
0.9999999999999858
100
AcDbArc
 50
322.7889324541
 51
59.9696882356
  0
ARC
  5
B00
330
1F
100
AcDbEntity
  8
0
  6
Continuous
 62
     7
370
    15
100
AcDbCircle
 10
-390.4490546986
 20
-71.2722359794
 30
0.0
 40
1.000000000000089
100
AcDbArc
 50
321.7544496955
 51
58.9352054769
  0
ARC
  5
B01
330
1F
100
AcDbEntity
  8
0
  6
Continuous
 62
     7
370
    15
100
AcDbCircle
 10
-391.6721752134
 20
-64.2113938496
 30
0.0
 40
0.9999999999998569
100
AcDbArc
 50
320.7199669368
 51
57.9007227183
  0
ARC
  5
B02
330
1F
100
AcDbEntity
  8
0
  6
Continuous
 62
     7
370
    15
100
AcDbCircle
 10
-392.7676188749
 20
-57.1296201622
 30
0.0
 40
1.00000000000003
100
AcDbArc
 50
319.6854841782
 51
56.8662399597
  0
ARC
  5
B03
330
1F
100
AcDbEntity
  8
0
  6
Continuous
 62
     7
370
    15
100
AcDbCircle
 10
-393.7350285915
 20
-50.0292234257
 30
0.0
 40
1.000000000000002
100
AcDbArc
 50
318.6510014196
 51
55.8317572011
  0
ARC
  5
B04
330
1F
100
AcDbEntity
  8
0
  6
Continuous
 62
     7
370
    15
100
AcDbCircle
 10
-394.5740890081
 20
-42.9125182195
 30
0.0
 40
1.000000000000003
100
AcDbArc
 50
317.616518661
 51
54.7972744425
  0
ARC
  5
B05
330
1F
100
AcDbEntity
  8
0
  6
Continuous
 62
     7
370
    15
100
AcDbCircle
 10
-395.2845266088
 20
-35.781824439
 30
0.0
 40
0.9999999999999661
100
AcDbArc
 50
316.5820359024
 51
53.7627916838
  0
ARC
  5
B06
330
1F
100
AcDbEntity
  8
0
  6
Continuous
 62
     7
370
    15
100
AcDbCircle
 10
-395.8661098059
 20
-28.6394665398
 30
0.0
 40
0.9999999999999579
100
AcDbArc
 50
315.5475531438
 51
52.7283089252
  0
ARC
  5
B07
330
1F
100
AcDbEntity
  8
0
  6
Continuous
 62
     7
370
    15
100
AcDbCircle
 10
-396.3186490155
 20
-21.4877727797
 30
0.0
 40
1.000000000000065
100
AcDbArc
 50
314.5130703851
 51
51.6938261666
  0
ARC
  5
B08
330
1F
100
AcDbEntity
  8
0
  6
Continuous
 62
     7
370
    15
100
AcDbCircle
 10
-396.6419967195
 20
-14.3290744596
 30
0.0
 40
1.000000000000004
100
AcDbArc
 50
313.4785876265
 51
50.659343408
  0
ARC
  5
B09
330
1F
100
AcDbEntity
  8
0
  6
Continuous
 62
     7
370
    15
100
AcDbCircle
 10
-396.8360475134
 20
-7.165705164
 30
0.0
 40
0.9999999999999882
100
AcDbArc
 50
312.4441048679
 51
49.6248606494
  0
ARC
  5
B0A
330
1F
100
AcDbEntity
  8
0
  6
Continuous
 62
     7
370
    15
100
AcDbCircle
 10
-396.9007381406
 20
0.0
 30
0.0
 40
0.9999999999999832
100
AcDbArc
 50
311.4096221093
 51
48.5903778907
  0
ARC
  5
B0B
330
1F
100
AcDbEntity
  8
0
  6
Continuous
 62
     7
370
    15
100
AcDbCircle
 10
-396.8360475134
 20
7.1657051641
 30
0.0
 40
0.9999999999999781
100
AcDbArc
 50
310.3751393507
 51
47.5558951321
  0
ARC
  5
B0C
330
1F
100
AcDbEntity
  8
0
  6
Continuous
 62
     7
370
    15
100
AcDbCircle
 10
-396.6419967195
 20
14.3290744596
 30
0.0
 40
1.000000000000044
100
AcDbArc
 50
309.340656592
 51
46.5214123735
  0
ARC
  5
B0D
330
1F
100
AcDbEntity
  8
0
  6
Continuous
 62
     7
370
    15
100
AcDbCircle
 10
-396.3186490155
 20
21.4877727797
 30
0.0
 40
0.9999999999999297
100
AcDbArc
 50
308.3061738334
 51
45.4869296149
  0
ARC
  5
B0E
330
1F
100
AcDbEntity
  8
0
  6
Continuous
 62
     7
370
    15
100
AcDbCircle
 10
-395.8661098059
 20
28.6394665398
 30
0.0
 40
1.000000000000045
100
AcDbArc
 50
307.2716910748
 51
44.4524468562
  0
ARC
  5
B0F
330
1F
100
AcDbEntity
  8
0
  6
Continuous
 62
     7
370
    15
100
AcDbCircle
 10
-395.2845266088
 20
35.781824439
 30
0.0
 40
0.9999999999999863
100
AcDbArc
 50
306.2372083162
 51
43.4179640976
  0
ARC
  5
B10
330
1F
100
AcDbEntity
  8
0
  6
Continuous
 62
     7
370
    15
100
AcDbCircle
 10
-394.5740890081
 20
42.9125182195
 30
0.0
 40
1.000000000000027
100
AcDbArc
 50
305.2027255575
 51
42.383481339
  0
ARC
  5
B11
330
1F
100
AcDbEntity
  8
0
  6
Continuous
 62
     7
370
    15
100
AcDbCircle
 10
-393.7350285915
 20
50.0292234257
 30
0.0
 40
0.9999999999999888
100
AcDbArc
 50
304.1682427989
 51
41.3489985804
  0
ARC
  5
B12
330
1F
100
AcDbEntity
  8
0
  6
Continuous
 62
     7
370
    15
100
AcDbCircle
 10
-392.7676188749
 20
57.1296201622
 30
0.0
 40
1.000000000000073
100
AcDbArc
 50
303.1337600403
 51
40.3145158218
  0
ARC
  5
B13
330
1F
100
AcDbEntity
  8
0
  6
Continuous
 62
     7
370
    15
100
AcDbCircle
 10
-391.6721752134
 20
64.2113938497
 30
0.0
 40
0.9999999999999951
100
AcDbArc
 50
302.0992772817
 51
39.2800330631
  0
ARC
  5
B14
330
1F
100
AcDbEntity
  8
0
  6
Continuous
 62
     7
370
    15
100
AcDbCircle
 10
-390.4490546986
 20
71.2722359794
 30
0.0
 40
1.000000000000087
100
AcDbArc
 50
301.0647945231
 51
38.2455503045
  0
ARC
  5
B15
330
1F
100
AcDbEntity
  8
0
  6
Continuous
 62
     7
370
    15
100
AcDbCircle
 10
-389.0986560418
 20
78.3098448662
 30
0.0
 40
0.9999999999999968
100
AcDbArc
 50
300.0303117644
 51
37.2110675459
  0
ARC
  5
B16
330
1F
100
AcDbEntity
  8
0
  6
Continuous
 62
     7
370
    15
100
AcDbCircle
 10
-387.6214194446
 20
85.3219263982
 30
0.0
 40
0.9999999999999545
100
AcDbArc
 50
298.9958290058
 51
36.1765847873
  0
ARC
  5
B17
330
1F
100
AcDbEntity
  8
0
  6
Continuous
 62
     7
370
    15
100
AcDbCircle
 10
-386.0178264548
 20
92.3061947849
 30
0.0
 40
0.9999999999999338
100
AcDbArc
 50
297.9613462472
 51
35.1421020287
  0
ARC
  5
B18
330
1F
100
AcDbEntity
  8
0
  6
Continuous
 62
     7
370
    15
100
AcDbCircle
 10
-384.2883998098
 20
99.2603733025
 30
0.0
 40
1.000000000000018
100
AcDbArc
 50
296.9268634886
 51
34.10761927
  0
ARC
  5
B19
330
1F
100
AcDbEntity
  8
0
  6
Continuous
 62
     7
370
    15
100
AcDbCircle
 10
-382.4337032662
 20
106.1821950358
 30
0.0
 40
1.000000000000007
100
AcDbArc
 50
295.89238073
 51
33.0731365114
  0
ARC
  5
B1A
330
1F
100
AcDbEntity
  8
0
  6
Continuous
 62
     7
370
    15
100
AcDbCircle
 10
-380.4543414159
 20
113.069403617
 30
0.0
 40
1.00000000000004
100
AcDbArc
 50
294.8578979713
 51
32.0386537528
  0
ARC
  5
B1B
330
1F
100
AcDbEntity
  8
0
  6
Continuous
 62
     7
370
    15
100
AcDbCircle
 10
-378.3509594891
 20
119.9197539617
 30
0.0
 40
0.9999999999998661
100
AcDbArc
 50
293.8234152127
 51
31.0041709942
  0
ARC
  5
B1C
330
1F
100
AcDbEntity
  8
0
  6
Continuous
 62
     7
370
    15
100
AcDbCircle
 10
-376.1242431437
 20
126.7310130004
 30
0.0
 40
1.00000000000017
100
AcDbArc
 50
292.7889324541
 51
29.9696882355
  0
ARC
  5
B1D
330
1F
100
AcDbEntity
  8
0
  6
Continuous
 62
     7
370
    15
100
AcDbCircle
 10
-373.7749182423
 20
133.5009604066
 30
0.0
 40
1.000000000000093
100
AcDbArc
 50
291.7544496955
 51
28.9352054769
  0
ARC
  5
B1E
330
1F
100
AcDbEntity
  8
0
  6
Continuous
 62
     7
370
    15
100
AcDbCircle
 10
-371.3037506152
 20
140.2273893205
 30
0.0
 40
1.000000000000013
100
AcDbArc
 50
290.7199669369
 51
27.9007227183
  0
ARC
  5
B1F
330
1F
100
AcDbEntity
  8
0
  6
Continuous
 62
     7
370
    15
100
AcDbCircle
 10
-368.7115458107
 20
146.9081070684
 30
0.0
 40
0.9999999999999348
100
AcDbArc
 50
289.6854841782
 51
26.8662399597
  0
ARC
  5
B20
330
1F
100
AcDbEntity
  8
0
  6
Continuous
 62
     7
370
    15
100
AcDbCircle
 10
-365.9991488329
 20
153.5409358775
 30
0.0
 40
1.000000000000014
100
AcDbArc
 50
288.6510014196
 51
25.8317572011
  0
ARC
  5
B21
330
1F
100
AcDbEntity
  8
0
  6
Continuous
 62
     7
370
    15
100
AcDbCircle
 10
-363.1674438659
 20
160.1237135856
 30
0.0
 40
1.000000000000019
100
AcDbArc
 50
287.616518661
 51
24.7972744424
  0
ARC
  5
B22
330
1F
100
AcDbEntity
  8
0
  6
Continuous
 62
     7
370
    15
100
AcDbCircle
 10
-360.2173539856
 20
166.6542943465
 30
0.0
 40
1.000000000000034
100
AcDbArc
 50
286.5820359024
 51
23.7627916838
  0
ARC
  5
B23
330
1F
100
AcDbEntity
  8
0
  6
Continuous
 62
     7
370
    15
100
AcDbCircle
 10
-357.1498408591
 20
173.1305493286
 30
0.0
 40
0.999999999999902
100
AcDbArc
 50
285.5475531438
 51
22.7283089252
  0
ARC
  5
B24
330
1F
100
AcDbEntity
  8
0
  6
Continuous
 62
     7
370
    15
100
AcDbCircle
 10
-353.9659044308
 20
179.5503674098
 30
0.0
 40
1.000000000000065
100
AcDbArc
 50
284.5130703851
 51
21.6938261666
  0
ARC
  5
B25
330
1F
100
AcDbEntity
  8
0
  6
Continuous
 62
     7
370
    15
100
AcDbCircle
 10
-350.6665825967
 20
185.911655865
 30
0.0
 40
0.999999999999992
100
AcDbArc
 50
283.4785876265
 51
20.659343408
  0
ARC
  5
B26
330
1F
100
AcDbEntity
  8
0
  6
Continuous
 62
     7
370
    15
100
AcDbCircle
 10
-347.252950866
 20
192.2123410486
 30
0.0
 40
1.000000000000007
100
AcDbArc
 50
282.4441048679
 51
19.6248606494
  0
ARC
  5
B27
330
1F
100
AcDbEntity
  8
0
  6
Continuous
 62
     7
370
    15
100
AcDbCircle
 10
-343.7261220105
 20
198.4503690703
 30
0.0
 40
0.9999999999999407
100
AcDbArc
 50
281.4096221093
 51
18.5903778907
  0
ARC
  5
B28
330
1F
100
AcDbEntity
  8
0
  6
Continuous
 62
     7
370
    15
100
AcDbCircle
 10
-340.087245702
 20
204.6237064648
 30
0.0
 40
1.000000000000036
100
AcDbArc
 50
280.3751393506
 51
17.5558951321
  0
ARC
  5
B29
330
1F
100
AcDbEntity
  8
0
  6
Continuous
 62
     7
370
    15
100
AcDbCircle
 10
-336.3375081371
 20
210.7303408545
 30
0.0
 40
1.000000000000014
100
AcDbArc
 50
279.340656592
 51
16.5214123735
  0
ARC
  5
B2A
330
1F
100
AcDbEntity
  8
0
  6
Continuous
 62
     7
370
    15
100
AcDbCircle
 10
-332.4781316511
 20
216.7682816057
 30
0.0
 40
1.000000000000037
100
AcDbArc
 50
278.3061738334
 51
15.4869296149
  0
ARC
  5
B2B
330
1F
100
AcDbEntity
  8
0
  6
Continuous
 62
     7
370
    15
100
AcDbCircle
 10
-328.5103743193
 20
222.7355604773
 30
0.0
 40
0.9999999999999282
100
AcDbArc
 50
277.2716910748
 51
14.4524468563
  0
ARC
  5
B2C
330
1F
100
AcDbEntity
  8
0
  6
Continuous
 62
     7
370
    15
100
AcDbCircle
 10
-324.4355295466
 20
228.6302322624
 30
0.0
 40
1.000000000000069
100
AcDbArc
 50
276.2372083162
 51
13.4179640976
  0
ARC
  5
B2D
330
1F
100
AcDbEntity
  8
0
  6
Continuous
 62
     7
370
    15
100
AcDbCircle
 10
-320.2549256464
 20
234.4503754225
 30
0.0
 40
0.9999999999999021
100
AcDbArc
 50
275.2027255575
 51
12.383481339
  0
ARC
  5
B2E
330
1F
100
AcDbEntity
  8
0
  6
Continuous
 62
     7
370
    15
100
AcDbCircle
 10
-315.9699254072
 20
240.1940927141
 30
0.0
 40
1.000000000000008
100
AcDbArc
 50
274.1682427989
 51
11.3489985804
  0
ARC
  5
B2F
330
1F
100
AcDbEntity
  8
0
  6
Continuous
 62
     7
370
    15
100
AcDbCircle
 10
-311.5819256485
 20
245.8595118065
 30
0.0
 40
0.9999999999999171
100
AcDbArc
 50
273.1337600403
 51
10.3145158218
  0
ARC
  5
B30
330
1F
100
AcDbEntity
  8
0
  6
Continuous
 62
     7
370
    15
100
AcDbCircle
 10
-307.0923567655
 20
251.4447858929
 30
0.0
 40
1.000000000000018
100
AcDbArc
 50
272.0992772817
 51
9.2800330631
  0
ARC
  5
B31
330
1F
100
AcDbEntity
  8
0
  6
Continuous
 62
     7
370
    15
100
AcDbCircle
 10
-302.5026822629
 20
256.948094292
 30
0.0
 40
1.000000000000005
100
AcDbArc
 50
271.0647945231
 51
8.2455503045
  0
ARC
  5
B32
330
1F
100
AcDbEntity
  8
0
  6
Continuous
 62
     7
370
    15
100
AcDbCircle
 10
-297.8143982775
 20
262.3676430415
 30
0.0
 40
1.000000000000096
100
AcDbArc
 50
270.0303117644
 51
7.2110675459
  0
ARC
  5
B33
330
1F
100
AcDbEntity
  8
0
  6
Continuous
 62
     7
370
    15
100
AcDbCircle
 10
-293.0290330909
 20
267.7016654829
 30
0.0
 40
1.000000000000018
100
AcDbArc
 50
268.9958290058
 51
6.1765847873
  0
ARC
  5
B34
330
1F
100
AcDbEntity
  8
0
  6
Continuous
 62
     7
370
    15
100
AcDbCircle
 10
-288.148146631
 20
272.9484228378
 30
0.0
 40
1.000000000000082
100
AcDbArc
 50
267.9613462472
 51
5.1421020287
  0
ARC
  5
B35
330
1F
100
AcDbEntity
  8
0
  6
Continuous
 62
     7
370
    15
100
AcDbCircle
 10
-283.1733299637
 20
278.106204774
 30
0.0
 40
0.9999999999999273
100
AcDbArc
 50
266.9268634886
 51
4.10761927
  0
ARC
  5
B36
330
1F
100
AcDbEntity
  8
0
  6
Continuous
 62
     7
370
    15
100
AcDbCircle
 10
-278.106204774
 20
283.1733299637
 30
0.0
 40
1.000000000000049
100
AcDbArc
 50
265.89238073
 51
3.0731365114
  0
ARC
  5
B37
330
1F
100
AcDbEntity
  8
0
  6
Continuous
 62
     7
370
    15
100
AcDbCircle
 10
-272.9484228378
 20
288.148146631
 30
0.0
 40
1.000000000000169
100
AcDbArc
 50
264.8578979713
 51
2.0386537528
  0
ARC
  5
B38
330
1F
100
AcDbEntity
  8
0
  6
Continuous
 62
     7
370
    15
100
AcDbCircle
 10
-267.7016654829
 20
293.0290330909
 30
0.0
 40
0.9999999999999859
100
AcDbArc
 50
263.8234152127
 51
1.0041709942
  0
ARC
  5
B39
330
1F
100
AcDbEntity
  8
0
  6
Continuous
 62
     7
370
    15
100
AcDbCircle
 10
-262.3676430415
 20
297.8143982775
 30
0.0
 40
0.9999999999999162
100
AcDbArc
 50
262.7889324541
 51
359.9696882356
  0
ARC
  5
B3A
330
1F
100
AcDbEntity
  8
0
  6
Continuous
 62
     7
370
    15
100
AcDbCircle
 10
-256.948094292
 20
302.5026822629
 30
0.0
 40
1.000000000000055
100
AcDbArc
 50
261.7544496955
 51
358.9352054769
  0
ARC
  5
B3B
330
1F
100
AcDbEntity
  8
0
  6
Continuous
 62
     7
370
    15
100
AcDbCircle
 10
-251.4447858929
 20
307.0923567655
 30
0.0
 40
1.000000000000105
100
AcDbArc
 50
260.7199669369
 51
357.9007227183
  0
ARC
  5
B3C
330
1F
100
AcDbEntity
  8
0
  6
Continuous
 62
     7
370
    15
100
AcDbCircle
 10
-245.8595118065
 20
311.5819256485
 30
0.0
 40
0.9999999999999787
100
AcDbArc
 50
259.6854841782
 51
356.8662399597
  0
ARC
  5
B3D
330
1F
100
AcDbEntity
  8
0
  6
Continuous
 62
     7
370
    15
100
AcDbCircle
 10
-240.194092714
 20
315.9699254072
 30
0.0
 40
1.000000000000119
100
AcDbArc
 50
258.6510014196
 51
355.8317572011
  0
ARC
  5
B3E
330
1F
100
AcDbEntity
  8
0
  6
Continuous
 62
     7
370
    15
100
AcDbCircle
 10
-234.4503754225
 20
320.2549256464
 30
0.0
 40
0.9999999999999921
100
AcDbArc
 50
257.616518661
 51
354.7972744425
  0
ARC
  5
B3F
330
1F
100
AcDbEntity
  8
0
  6
Continuous
 62
     7
370
    15
100
AcDbCircle
 10
-228.6302322624
 20
324.4355295466
 30
0.0
 40
0.9999999999998908
100
AcDbArc
 50
256.5820359024
 51
353.7627916838
  0
ARC
  5
B40
330
1F
100
AcDbEntity
  8
0
  6
Continuous
 62
     7
370
    15
100
AcDbCircle
 10
-222.7355604773
 20
328.5103743193
 30
0.0
 40
1.000000000000027
100
AcDbArc
 50
255.5475531438
 51
352.7283089252
  0
ARC
  5
B41
330
1F
100
AcDbEntity
  8
0
  6
Continuous
 62
     7
370
    15
100
AcDbCircle
 10
-216.7682816057
 20
332.4781316512
 30
0.0
 40
1.000000000000009
100
AcDbArc
 50
254.5130703851
 51
351.6938261666
  0
ARC
  5
B42
330
1F
100
AcDbEntity
  8
0
  6
Continuous
 62
     7
370
    15
100
AcDbCircle
 10
-210.7303408545
 20
336.3375081371
 30
0.0
 40
0.9999999999998908
100
AcDbArc
 50
253.4785876265
 51
350.659343408
  0
ARC
  5
B43
330
1F
100
AcDbEntity
  8
0
  6
Continuous
 62
     7
370
    15
100
AcDbCircle
 10
-204.6237064648
 20
340.087245702
 30
0.0
 40
1.000000000000045
100
AcDbArc
 50
252.4441048679
 51
349.6248606493
  0
ARC
  5
B44
330
1F
100
AcDbEntity
  8
0
  6
Continuous
 62
     7
370
    15
100
AcDbCircle
 10
-198.4503690703
 20
343.7261220105
 30
0.0
 40
0.999999999999896
100
AcDbArc
 50
251.4096221093
 51
348.5903778907
  0
ARC
  5
B45
330
1F
100
AcDbEntity
  8
0
  6
Continuous
 62
     7
370
    15
100
AcDbCircle
 10
-192.2123410486
 20
347.252950866
 30
0.0
 40
1.000000000000042
100
AcDbArc
 50
250.3751393507
 51
347.5558951321
  0
ARC
  5
B46
330
1F
100
AcDbEntity
  8
0
  6
Continuous
 62
     7
370
    15
100
AcDbCircle
 10
-185.911655865
 20
350.6665825967
 30
0.0
 40
1.000000000000093
100
AcDbArc
 50
249.340656592
 51
346.5214123735
  0
ARC
  5
B47
330
1F
100
AcDbEntity
  8
0
  6
Continuous
 62
     7
370
    15
100
AcDbCircle
 10
-179.5503674098
 20
353.9659044308
 30
0.0
 40
0.9999999999999544
100
AcDbArc
 50
248.3061738334
 51
345.4869296149
  0
ARC
  5
B48
330
1F
100
AcDbEntity
  8
0
  6
Continuous
 62
     7
370
    15
100
AcDbCircle
 10
-173.1305493286
 20
357.1498408591
 30
0.0
 40
0.9999999999999782
100
AcDbArc
 50
247.2716910748
 51
344.4524468562
  0
ARC
  5
B49
330
1F
100
AcDbEntity
  8
0
  6
Continuous
 62
     7
370
    15
100
AcDbCircle
 10
-166.6542943464
 20
360.2173539857
 30
0.0
 40
1.000000000000034
100
AcDbArc
 50
246.2372083162
 51
343.4179640976
  0
ARC
  5
B4A
330
1F
100
AcDbEntity
  8
0
  6
Continuous
 62
     7
370
    15
100
AcDbCircle
 10
-160.1237135856
 20
363.1674438659
 30
0.0
 40
0.9999999999999651
100
AcDbArc
 50
245.2027255575
 51
342.383481339
  0
ARC
  5
B4B
330
1F
100
AcDbEntity
  8
0
  6
Continuous
 62
     7
370
    15
100
AcDbCircle
 10
-153.5409358775
 20
365.9991488329
 30
0.0
 40
1.000000000000014
100
AcDbArc
 50
244.1682427989
 51
341.3489985804
  0
ARC
  5
B4C
330
1F
100
AcDbEntity
  8
0
  6
Continuous
 62
     7
370
    15
100
AcDbCircle
 10
-146.9081070684
 20
368.7115458107
 30
0.0
 40
1.000000000000011
100
AcDbArc
 50
243.1337600403
 51
340.3145158218
  0
ARC
  5
B4D
330
1F
100
AcDbEntity
  8
0
  6
Continuous
 62
     7
370
    15
100
AcDbCircle
 10
-140.2273893205
 20
371.3037506152
 30
0.0
 40
0.999999999999917
100
AcDbArc
 50
242.0992772817
 51
339.2800330631
  0
ARC
  5
B4E
330
1F
100
AcDbEntity
  8
0
  6
Continuous
 62
     7
370
    15
100
AcDbCircle
 10
-133.5009604066
 20
373.7749182423
 30
0.0
 40
1.000000000000005
100
AcDbArc
 50
241.0647945231
 51
338.2455503045
  0
ARC
  5
B4F
330
1F
100
AcDbEntity
  8
0
  6
Continuous
 62
     7
370
    15
100
AcDbCircle
 10
-126.7310130004
 20
376.1242431437
 30
0.0
 40
0.9999999999999528
100
AcDbArc
 50
240.0303117644
 51
337.2110675459
  0
ARC
  5
B50
330
1F
100
AcDbEntity
  8
0
  6
Continuous
 62
     7
370
    15
100
AcDbCircle
 10
-119.9197539617
 20
378.3509594891
 30
0.0
 40
1.000000000000013
100
AcDbArc
 50
238.9958290058
 51
336.1765847873
  0
ARC
  5
B51
330
1F
100
AcDbEntity
  8
0
  6
Continuous
 62
     7
370
    15
100
AcDbCircle
 10
-113.069403617
 20
380.4543414159
 30
0.0
 40
0.9999999999999559
100
AcDbArc
 50
237.9613462472
 51
335.1421020287
  0
ARC
  5
B52
330
1F
100
AcDbEntity
  8
0
  6
Continuous
 62
     7
370
    15
100
AcDbCircle
 10
-106.1821950358
 20
382.4337032662
 30
0.0
 40
0.999999999999952
100
AcDbArc
 50
236.9268634886
 51
334.10761927
  0
ARC
  5
B53
330
1F
100
AcDbEntity
  8
0
  6
Continuous
 62
     7
370
    15
100
AcDbCircle
 10
-99.2603733025
 20
384.2883998098
 30
0.0
 40
0.999999999999875
100
AcDbArc
 50
235.89238073
 51
333.0731365114
  0
ARC
  5
B54
330
1F
100
AcDbEntity
  8
0
  6
Continuous
 62
     7
370
    15
100
AcDbCircle
 10
-92.3061947849
 20
386.0178264548
 30
0.0
 40
0.9999999999999605
100
AcDbArc
 50
234.8578979713
 51
332.0386537528
  0
ARC
  5
B55
330
1F
100
AcDbEntity
  8
0
  6
Continuous
 62
     7
370
    15
100
AcDbCircle
 10
-85.3219263982
 20
387.6214194446
 30
0.0
 40
0.9999999999999638
100
AcDbArc
 50
233.8234152127
 51
331.0041709942
  0
ARC
  5
B56
330
1F
100
AcDbEntity
  8
0
  6
Continuous
 62
     7
370
    15
100
AcDbCircle
 10
-78.3098448662
 20
389.0986560418
 30
0.0
 40
0.9999999999999124
100
AcDbArc
 50
232.7889324541
 51
329.9696882356
  0
ARC
  5
B57
330
1F
100
AcDbEntity
  8
0
  6
Continuous
 62
     7
370
    15
100
AcDbCircle
 10
-71.2722359794
 20
390.4490546986
 30
0.0
 40
1.000000000000042
100
AcDbArc
 50
231.7544496955
 51
328.9352054769
  0
ARC
  5
B58
330
1F
100
AcDbEntity
  8
0
  6
Continuous
 62
     7
370
    15
100
AcDbCircle
 10
-64.2113938496
 20
391.6721752134
 30
0.0
 40
0.9999999999999414
100
AcDbArc
 50
230.7199669369
 51
327.9007227183
  0
ARC
  5
B59
330
1F
100
AcDbEntity
  8
0
  6
Continuous
 62
     7
370
    15
100
AcDbCircle
 10
-57.1296201622
 20
392.7676188749
 30
0.0
 40
0.9999999999999928
100
AcDbArc
 50
229.6854841782
 51
326.8662399597
  0
ARC
  5
B5A
330
1F
100
AcDbEntity
  8
0
  6
Continuous
 62
     7
370
    15
100
AcDbCircle
 10
-50.0292234257
 20
393.7350285915
 30
0.0
 40
1.000000000000009
100
AcDbArc
 50
228.6510014196
 51
325.8317572011
  0
ARC
  5
B5B
330
1F
100
AcDbEntity
  8
0
  6
Continuous
 62
     7
370
    15
100
AcDbCircle
 10
-42.9125182195
 20
394.5740890081
 30
0.0
 40
0.9999999999999819
100
AcDbArc
 50
227.616518661
 51
324.7972744425
  0
ARC
  5
B5C
330
1F
100
AcDbEntity
  8
0
  6
Continuous
 62
     7
370
    15
100
AcDbCircle
 10
-35.781824439
 20
395.2845266088
 30
0.0
 40
0.9999999999999325
100
AcDbArc
 50
226.5820359024
 51
323.7627916838
  0
ARC
  5
B5D
330
1F
100
AcDbEntity
  8
0
  6
Continuous
 62
     7
370
    15
100
AcDbCircle
 10
-28.6394665398
 20
395.8661098059
 30
0.0
 40
0.999999999999996
100
AcDbArc
 50
225.5475531438
 51
322.7283089252
  0
ARC
  5
B5E
330
1F
100
AcDbEntity
  8
0
  6
Continuous
 62
     7
370
    15
100
AcDbCircle
 10
-21.4877727797
 20
396.3186490155
 30
0.0
 40
1.000000000000068
100
AcDbArc
 50
224.5130703851
 51
321.6938261666
  0
ARC
  5
B5F
330
1F
100
AcDbEntity
  8
0
  6
Continuous
 62
     7
370
    15
100
AcDbCircle
 10
-14.3290744596
 20
396.6419967195
 30
0.0
 40
1.000000000000014
100
AcDbArc
 50
223.4785876265
 51
320.659343408
  0
ARC
  5
B60
330
1F
100
AcDbEntity
  8
0
  6
Continuous
 62
     7
370
    15
100
AcDbCircle
 10
-7.165705164
 20
396.8360475134
 30
0.0
 40
1.000000000000028
100
AcDbArc
 50
222.4441048679
 51
319.6248606493
  0
ARC
  5
B61
330
1F
100
AcDbEntity
  8
0
  6
Continuous
 62
     7
370
    15
100
AcDbCircle
 10
0.0
 20
396.9007381406
 30
0.0
 40
0.9999999999999903
100
AcDbArc
 50
221.4096221093
 51
318.5903778907
  0
ARC
  5
B62
330
1F
100
AcDbEntity
  8
0
  6
Continuous
 62
     7
370
    15
100
AcDbCircle
 10
7.165705164
 20
396.8360475134
 30
0.0
 40
0.9999999999999821
100
AcDbArc
 50
220.3751393507
 51
317.5558951321
  0
ARC
  5
B63
330
1F
100
AcDbEntity
  8
0
  6
Continuous
 62
     7
370
    15
100
AcDbCircle
 10
14.3290744596
 20
396.6419967195
 30
0.0
 40
1.000000000000053
100
AcDbArc
 50
219.340656592
 51
316.5214123735
  0
ENDSEC
  0
SECTION
  2
OBJECTS
  0
DICTIONARY
  5
C
330
0
100
AcDbDictionary
281
     1
  3
ACAD_GROUP
350
D
  3
ACAD_LAYOUT
350
1A
  3
ACAD_MLINESTYLE
350
17
  3
ACAD_PLOTSETTINGS
350
19
  3
ACAD_PLOTSTYLENAME
350
E
  3
ACAD_SCALELIST
350
47
  0
DICTIONARY
  5
D
102
{ACAD_REACTORS
330
C
102
}
330
C
100
AcDbDictionary
281
     1
  0
DICTIONARY
  5
1A
102
{ACAD_REACTORS
330
C
102
}
330
C
100
AcDbDictionary
281
     1
  3
Layout1
350
1E
  3
Layout2
350
26
  3
Model
350
22
  0
DICTIONARY
  5
17
102
{ACAD_REACTORS
330
C
102
}
330
C
100
AcDbDictionary
281
     1
  3
Standard
350
18
  0
DICTIONARY
  5
19
102
{ACAD_REACTORS
330
C
102
}
330
C
100
AcDbDictionary
281
     1
  0
ACDBDICTIONARYWDFLT
  5
E
102
{ACAD_REACTORS
330
C
102
}
330
C
100
AcDbDictionary
281
     1
  3
Normal
350
F
100
AcDbDictionaryWithDefault
340
F
  0
DICTIONARY
  5
47
102
{ACAD_REACTORS
330
C
102
}
330
C
100
AcDbDictionary
281
     1
  3
A0
350
48
  3
A1
350
49
  3
A2
350
4A
  3
A3
350
4B
  3
A4
350
4C
  3
A5
350
4D
  3
A6
350
4E
  3
A7
350
4F
  3
A8
350
50
  3
A9
350
51
  3
B0
350
52
  3
B1
350
53
  3
B2
350
54
  3
B3
350
55
  3
B4
350
56
  3
B5
350
57
  3
B6
350
58
  3
B7
350
59
  3
B8
350
5A
  3
B9
350
5B
  3
C0
350
5C
  3
C1
350
5D
  3
C2
350
5E
  3
C3
350
5F
  3
C4
350
60
  3
C5
350
61
  3
C6
350
62
  3
C7
350
63
  3
C8
350
64
  3
C9
350
65
  3
D0
350
66
  3
D1
350
67
  3
D2
350
68
  0
LAYOUT
  5
1E
102
{ACAD_REACTORS
330
1A
102
}
330
1A
100
AcDbPlotSettings
  1

  2
none_device
  4

  6

 40
0.0
 41
0.0
 42
0.0
 43
0.0
 44
0.0
 45
0.0
 46
0.0
 47
0.0
 48
0.0
 49
0.0
140
0.0
141
0.0
142
1.0
143
1.0
 70
   688
 72
     1
 73
     0
 74
     5
  7

 75
    16
147
1.0
148
0.0
149
0.0
100
AcDbLayout
  1
Layout1
 70
     1
 71
     1
 10
0.0
 20
0.0
 11
420.0
 21
297.0
 12
0.0
 22
0.0
 32
0.0
 14
1.0000000000E+20
 24
1.0000000000E+20
 34
1.0000000000E+20
 15
-1.0000000000E+20
 25
-1.0000000000E+20
 35
-1.0000000000E+20
146
0.0
 13
0.0
 23
0.0
 33
0.0
 16
1.0
 26
0.0
 36
0.0
 17
0.0
 27
1.0
 37
0.0
 76
     0
330
1B
  0
LAYOUT
  5
26
102
{ACAD_REACTORS
330
1A
102
}
330
1A
100
AcDbPlotSettings
  1

  2
none_device
  4

  6

 40
0.0
 41
0.0
 42
0.0
 43
0.0
 44
0.0
 45
0.0
 46
0.0
 47
0.0
 48
0.0
 49
0.0
140
0.0
141
0.0
142
1.0
143
1.0
 70
   688
 72
     1
 73
     0
 74
     5
  7

 75
    16
147
1.0
148
0.0
149
0.0
100
AcDbLayout
  1
Layout2
 70
     1
 71
     2
 10
0.0
 20
0.0
 11
0.0
 21
0.0
 12
0.0
 22
0.0
 32
0.0
 14
0.0
 24
0.0
 34
0.0
 15
0.0
 25
0.0
 35
0.0
146
0.0
 13
0.0
 23
0.0
 33
0.0
 16
1.0
 26
0.0
 36
0.0
 17
0.0
 27
1.0
 37
0.0
 76
     0
330
23
  0
LAYOUT
  5
22
102
{ACAD_REACTORS
330
1A
102
}
330
1A
100
AcDbPlotSettings
  1

  2
none_device
  4
ANSI_A_(11.00_x_8.50_Inches)
  6

 40
6.35
 41
19.05
 42
6.35000508
 43
19.05000254
 44
279.4
 45
215.9
 46
133.34999746
 47
88.89999873
 48
0.0
 49
0.0
140
0.0
141
0.0
142
0.0105189555
143
1.0
 70
  1696
 72
     0
 73
     0
 74
     0
  7

 75
     0
147
0.0179189148
148
-1300.4909072572
149
0.0
100
AcDbLayout
  1
Model
 70
     1
 71
     0
 10
0.0
 20
0.0
 11
420.0
 21
297.0
 12
0.0
 22
0.0
 32
0.0
 14
-399.9921874237
 24
-399.9921874237
 34
0.0
 15
399.9921874237
 25
399.9921874237
 35
0.0
146
0.0
 13
0.0
 23
0.0
 33
0.0
 16
1.0
 26
0.0
 36
0.0
 17
0.0
 27
1.0
 37
0.0
 76
     0
330
1F
331
29
  0
MLINESTYLE
  5
18
102
{ACAD_REACTORS
330
17
102
}
330
17
100
AcDbMlineStyle
  2
Standard
 70
     0
  3

 62
   256
 51
90.0
 52
90.0
 71
     2
 49
0.5
 62
   256
  6
BYLAYER
 49
-0.5
 62
   256
  6
BYLAYER
  0
ACDBPLACEHOLDER
  5
F
102
{ACAD_REACTORS
330
E
102
}
330
E
  0
SCALE
  5
48
102
{ACAD_REACTORS
330
47
102
}
330
47
100
AcDbScale
 70
     0
300
1:1
140
1.0
141
1.0
290
     1
  0
SCALE
  5
49
102
{ACAD_REACTORS
330
47
102
}
330
47
100
AcDbScale
 70
     0
300
1:2
140
1.0
141
2.0
290
     0
  0
SCALE
  5
4A
102
{ACAD_REACTORS
330
47
102
}
330
47
100
AcDbScale
 70
     0
300
1:4
140
1.0
141
4.0
290
     0
  0
SCALE
  5
4B
102
{ACAD_REACTORS
330
47
102
}
330
47
100
AcDbScale
 70
     0
300
1:5
140
1.0
141
5.0
290
     0
  0
SCALE
  5
4C
102
{ACAD_REACTORS
330
47
102
}
330
47
100
AcDbScale
 70
     0
300
1:8
140
1.0
141
8.0
290
     0
  0
SCALE
  5
4D
102
{ACAD_REACTORS
330
47
102
}
330
47
100
AcDbScale
 70
     0
300
1:10
140
1.0
141
10.0
290
     0
  0
SCALE
  5
4E
102
{ACAD_REACTORS
330
47
102
}
330
47
100
AcDbScale
 70
     0
300
1:16
140
1.0
141
16.0
290
     0
  0
SCALE
  5
4F
102
{ACAD_REACTORS
330
47
102
}
330
47
100
AcDbScale
 70
     0
300
1:20
140
1.0
141
20.0
290
     0
  0
SCALE
  5
50
102
{ACAD_REACTORS
330
47
102
}
330
47
100
AcDbScale
 70
     0
300
1:30
140
1.0
141
30.0
290
     0
  0
SCALE
  5
51
102
{ACAD_REACTORS
330
47
102
}
330
47
100
AcDbScale
 70
     0
300
1:40
140
1.0
141
40.0
290
     0
  0
SCALE
  5
52
102
{ACAD_REACTORS
330
47
102
}
330
47
100
AcDbScale
 70
     0
300
1:50
140
1.0
141
50.0
290
     0
  0
SCALE
  5
53
102
{ACAD_REACTORS
330
47
102
}
330
47
100
AcDbScale
 70
     0
300
1:100
140
1.0
141
100.0
290
     0
  0
SCALE
  5
54
102
{ACAD_REACTORS
330
47
102
}
330
47
100
AcDbScale
 70
     0
300
2:1
140
2.0
141
1.0
290
     0
  0
SCALE
  5
55
102
{ACAD_REACTORS
330
47
102
}
330
47
100
AcDbScale
 70
     0
300
4:1
140
4.0
141
1.0
290
     0
  0
SCALE
  5
56
102
{ACAD_REACTORS
330
47
102
}
330
47
100
AcDbScale
 70
     0
300
8:1
140
8.0
141
1.0
290
     0
  0
SCALE
  5
57
102
{ACAD_REACTORS
330
47
102
}
330
47
100
AcDbScale
 70
     0
300
10:1
140
10.0
141
1.0
290
     0
  0
SCALE
  5
58
102
{ACAD_REACTORS
330
47
102
}
330
47
100
AcDbScale
 70
     0
300
100:1
140
100.0
141
1.0
290
     0
  0
SCALE
  5
59
102
{ACAD_REACTORS
330
47
102
}
330
47
100
AcDbScale
 70
     0
300
1/128" = 1'-0"
140
0.0078125
141
12.0
290
     0
  0
SCALE
  5
5A
102
{ACAD_REACTORS
330
47
102
}
330
47
100
AcDbScale
 70
     0
300
1/64" = 1'-0"
140
0.015625
141
12.0
290
     0
  0
SCALE
  5
5B
102
{ACAD_REACTORS
330
47
102
}
330
47
100
AcDbScale
 70
     0
300
1/32" = 1'-0"
140
0.03125
141
12.0
290
     0
  0
SCALE
  5
5C
102
{ACAD_REACTORS
330
47
102
}
330
47
100
AcDbScale
 70
     0
300
1/16" = 1'-0"
140
0.0625
141
12.0
290
     0
  0
SCALE
  5
5D
102
{ACAD_REACTORS
330
47
102
}
330
47
100
AcDbScale
 70
     0
300
3/32" = 1'-0"
140
0.09375
141
12.0
290
     0
  0
SCALE
  5
5E
102
{ACAD_REACTORS
330
47
102
}
330
47
100
AcDbScale
 70
     0
300
1/8" = 1'-0"
140
0.125
141
12.0
290
     0
  0
SCALE
  5
5F
102
{ACAD_REACTORS
330
47
102
}
330
47
100
AcDbScale
 70
     0
300
3/16" = 1'-0"
140
0.1875
141
12.0
290
     0
  0
SCALE
  5
60
102
{ACAD_REACTORS
330
47
102
}
330
47
100
AcDbScale
 70
     0
300
1/4" = 1'-0"
140
0.25
141
12.0
290
     0
  0
SCALE
  5
61
102
{ACAD_REACTORS
330
47
102
}
330
47
100
AcDbScale
 70
     0
300
3/8" = 1'-0"
140
0.375
141
12.0
290
     0
  0
SCALE
  5
62
102
{ACAD_REACTORS
330
47
102
}
330
47
100
AcDbScale
 70
     0
300
1/2" = 1'-0"
140
0.5
141
12.0
290
     0
  0
SCALE
  5
63
102
{ACAD_REACTORS
330
47
102
}
330
47
100
AcDbScale
 70
     0
300
3/4" = 1'-0"
140
0.75
141
12.0
290
     0
  0
SCALE
  5
64
102
{ACAD_REACTORS
330
47
102
}
330
47
100
AcDbScale
 70
     0
300
1" = 1'-0"
140
1.0
141
12.0
290
     0
  0
SCALE
  5
65
102
{ACAD_REACTORS
330
47
102
}
330
47
100
AcDbScale
 70
     0
300
1-1/2" = 1'-0"
140
1.5
141
12.0
290
     0
  0
SCALE
  5
66
102
{ACAD_REACTORS
330
47
102
}
330
47
100
AcDbScale
 70
     0
300
3" = 1'-0"
140
3.0
141
12.0
290
     0
  0
SCALE
  5
67
102
{ACAD_REACTORS
330
47
102
}
330
47
100
AcDbScale
 70
     0
300
6" = 1'-0"
140
6.0
141
12.0
290
     0
  0
SCALE
  5
68
102
{ACAD_REACTORS
330
47
102
}
330
47
100
AcDbScale
 70
     0
300
1'-0" = 1'-0"
140
12.0
141
12.0
290
     0
  0
ENDSEC
  0
EOF
